Song name
# A B C D E F G H I J K L M N O P Q R S T U V W X Y Z

Gary Clark Jr - Nextdoor Neighbor Blues tab

Open G tuning (DGDGBD)

D|-----------------|-----------------|-----------------|-----------------|
B|-------3-------3-|-------3-------3-|-------3-------3-|-------3-------3-|
G|------3-3------0-|------3-3------0-|------3-3------0-|------3-3------0-|
D|-----------------|-----------------|-----------------|-----------------|
G|--0-0----0-0-3p--|--0-0----0-0-3p--|--0-0----0-0-3p--|--0-0----0-0-3p--|
D|-----------------|-----------------|-----------------|-----------------|

D|-5-3-5-3h5-3-----|---8---8---8---8-|-----------------|-----------------|
B|-0-0-0-0-0-0-----|---5---5---5---5-|-------3-------3-|-------3-------3-|
G|-----------------|---5---5---5---5-|------3-3------0-|------3-3------0-|
D|-----------------|---5---5---5---5-|-----------------|-----------------|
G|-----------------|-5-5-5-5-5-5-5-5-|--0-0----0-0-3p--|--0-0----0-0-3p--|
D|-----------------|-----------------|-----------------|-----------------|

D|---8---8---8---8-|-----------------|-----------------|---10--10--8---8-|
B|---5---5---5---5-|-------3-------3-|-------3-------3-|---7---7---5---5-|
G|---5---5---5---5-|------3-3------0-|------3-3------0-|---7---7---5---5-|
D|---5---5---5---5-|-----------------|-----------------|---7---7---5---5-|
G|-5-5-5-5-5-5-5-5-|--0-0----0-0-3p--|--0-0----0-0-3p--|-7-7-7-7-5-5-5-5-|
D|-----------------|-----------------|-----------------|-----------------|

D|-----------------|-----------------|
B|-------3-------3-|-------3-------3-|
G|------3-3------0-|------3-3------0-|
D|-----------------|-----------------|
G|--0-0----0-0-3p--|--0-0----0-0-3p--|
D|-----------------|-----------------|

Solo Part (Slide into and out of)

D|-/12-10-12-10h12-10\--|
B|-/12-10-12-10h12-10\--|
G|-/12-10-12-10h12-10\--|
D|----------------------|
G|----------------------|
D|----------------------|

That's essentially the whole song. There are some different variations using same notes 
but you should be able to figure it out if you have the basic groove down. Enjoy!

owen_kowen@yahoo.com
Tap to rate this tab
# A B C D E F G H I J K L M N O P Q R S T U V W X Y Z