Song name
# A B C D E F G H I J K L M N O P Q R S T U V W X Y Z

Gary Hoey - Carol Of The Bells tab

tune guitars down half step to Eb

3/4 timing

Introduction


|----------------|----------------|----------------|----------------|
|----------------|----------------|----------------|----------------|
|------------String Arrangement Intro x 4 bars-----|----------------|
|----------------|----------------|----------------|----------------|
|----------------|----------------|----------------|----------------|
|----------------|----------------|----------------|----------------|

Guitar 1

|----------------|----------------|----------------|----------------|
|----------------|----------------|----------------|----------------|
|12---11-12--9---|12---11-12--9---|12---11-12--9---|12---11-12--9---|
|----------------|----------------|----------------|----------------|
|----------------|----------------|----------------|----------------|
|----------------|----------------|----------------|----------------|
|                |                |                |                |           
|Guitar 2        |                |                |                |           
|                |                |                |                |
|----------------|----------------|----------------|----------------|
|----------------|----------------|12---10-12--8---|12---10-12--8---|
|----------------|----------------|----------------|----------------|
|----------------|----------------|----------------|----------------|
|----------------|----------------|----------------|----------------|
|----------------|----------------|----------------|----------------|


(Drums Enter)
Guitar 1

|----------------|----------------|----------------|----------------|
|----------------|----------------|----------------|----------------|
|12---11-12--9---|12---11-12--9---|12---11-12--9---|12---11-12--9---|
|----------------|----------------|----------------|----------------|
|----------------|----------------|----------------|----------------|
|----------------|----------------|----------------|----------------|
|                |                |                |                |           
|Guitar 2        |                |                |                |           
|                |                |                |                |
|----------------|----------------|----------------|----------------|
|12---10-12--8---|12---10-12--8---|12---10-12--8---|12---10-12--8---|
|----------------|----------------|----------------|----------------|
|----------------|----------------|----------------|----------------|
|----------------|----------------|----------------|----------------|
|----------------|----------------|----------------|----------------|
|                |                |                |                |
|Guitar 3        |                |                |                |
|                |                |                |                |
|----------------|----------------|----------------|----------------|
|17---15-17------|17---15-17------|17---15-17------|17---15-17------|
|------------16--|------------16--|------------16--|------------16--|
|----------------|----------------|----------------|----------------|
|----------------|----------------|----------------|----------------|
|----------------|----------------|----------------|----------------|
|                |                |                |                |
|Guitar 4        |                |                |                |
|(Fade in "Strike chord before bar and gradually increase volume)   |
|----------------|----------------|----------------|----------------|
|----------------|----------------|----------------|----------------|
|(9)-------------|----------------|----------------|----------------|
|(9)-------------|----------------|----------------|----------------|
|(7)-------------|----------------|----------------|----------------|
|(0)-------------|----------------|----------------|----------------|

Main theme

Guitar 1

|----------------|----------------|----------------|----------------|
|----------------|----------------|----------------|----------------|
|12---11-12--9---|12---11-12--9---|12---11-12--9---|12---11-12--9---|
|----------------|----------------|----------------|----------------|
|----------------|----------------|----------------|----------------|
|----------------|----------------|----------------|----------------|
|                |                |                |                |
|Guitar 2        |                |                |                |
|                |                |                |                |
|----------------|----------------|----------------|----------------|
|----------------|----------------|12---10-12--8---|12---10-12--8---|
|----------------|----------------|----------------|----------------|
|----------------|----------------|----------------|----------------|
|----------------|----------------|----------------|----------------|
|----------------|----------------|----------------|----------------|
|                |                |                |                |
|Guitar 3        |                |                |                |
|                |                |                |                |
|15---14-15--12--|15---14-15--12--|15---14-15--12--|15---14-15--12--|
|----------------|----------------|----------------|----------------|
|----------------|----------------|----------------|----------------|
|----------------|----------------|----------------|----------------|
|----------------|----------------|----------------|----------------|
|----------------|----------------|----------------|----------------|
|                |                |                |                |
|Guitar 4        | "Let ring"     |                |                |
|E               |                |D               |                |
|----------------|----------------|----------------|----------------|
|----------------|----------------|----------------|----------------|
|9---------------|9---------------|7---------------|7---------------|
|9---------------|9---------------|7---------------|7---------------|
|7---------------|7---------------|5---------------|5---------------|
|0---------------|0---------------|----------------|----------------|


Guitar 1

|----------------|----------------|----------------|----------------|
|----------------|----------------|----------------|----------------|
|12---11-12--9---|12---11-12--9---|12---11--9------|12---11--9------|
|----------------|----------------|------------12--|------------12--|
|----------------|----------------|----------------|----------------|
|----------------|----------------|----------------|----------------|
|                |                |                |                |
|Guitar 2        |                |                |                |
|                |                |                |                |
|----------------|----------------|----------------|----------------|
|12---10-12--8---|12---10-12--8---|12---10--8--7---|12---10--8--7---|
|----------------|----------------|----------------|----------------|
|----------------|----------------|----------------|----------------|
|----------------|----------------|----------------|----------------|
|----------------|----------------|----------------|----------------|
|                |                |                |                |
|Guitar 3        |                |                |                |
|                |                |                |                |
|15---14-15--12--|15---14-15--12--|15---14-12--10--|15---14-12--10--|
|----------------|----------------|----------------|----------------|
|----------------|----------------|----------------|----------------|
|----------------|----------------|----------------|----------------|
|----------------|----------------|----------------|----------------|
|----------------|----------------|----------------|----------------|
|                |                |                |                |
|Guitar 4        | "let ring"     |                |                |
|                |                |                |                |
|----------------|----------------|----------------|----------------|
|----------------|----------------|----------------|----------------|
|5---------------|5---------------|4---------------|4---------------|
|5---------------|5---------------|4---------------|4---------------|
|3---------------|3---------------|2---------------|2---------------|
|----------------|----------------|----------------|----------------|

Play main theme twice




Tap to rate this tab
# A B C D E F G H I J K L M N O P Q R S T U V W X Y Z