Song name
# A B C D E F G H I J K L M N O P Q R S T U V W X Y Z

Gary Jules - Mad World Acoustic tab

MAD WORLD
by GARY JULES (Acoustic Version)
Tabbed by Luigi B.

INTRO:
E|----9---------------------------9------------------------------------------|
B|-10---9-10-7-9---------------10---9-10-7-9-10-12---------------------------|
G|---------------9-8----8-----9----------------------------------------------|
D|-------------------9-----9-------------------------------------------------|
A|---------------------------------------------------------------------------|
E|---------------------------------------------------------------------------|



VERSES:
                G G G     D D D     A A A
E|--------------3-3-3-----2-2-2-----0-0-0------------------------------------|
B|--------------3-3-3--3--3-3-3--3--2-2-2--2---------------------------------|
G|-----0-0------0-0-0-----2-2-2-----2-2-2----2-------------------------------|
D|-2-2-----2-2--0-0-0-----0-0-0-----2-2-2------2-----------------------------|
A|--------------2-2-2-----x-x-x-----0-0-0------------------------------------|
E|--------------3-3-3-----x-x-x-----x-x-x------------------------------------|

                G G G     D D D     A A A
E|--------------3-3-3-----2-2-2-----0-0-0------------------------------------|
B|--------------3-3-3--3--3-3-3--3--2-2-2--2---------------------------------|
G|-----0-0------0-0-0-----2-2-2-----2-2-2----2-------------------------------|
D|-2-2-----2-2--0-0-0-----0-0-0-----2-2-2------2-----------------------------|
A|--------------2-2-2-----x-x-x-----0-0-0------------------------------------|
E|--------------3-3-3-----x-x-x-----x-x-x------------------------------------|

                G G G     D D D     A A A
E|--------------3-3-3-----2-2-2-----0-0-0------------------------------------|
B|--------------3-3-3--3--3-3-3--3--2-2-2--2---------------------------------|
G|-----0-0------0-0-0-----2-2-2-----2-2-2----2-------------------------------|
D|---2-----2-2--0-0-0-----0-0-0-----2-2-2------2-----------------------------|
A|--------------2-2-2-----x-x-x-----0-0-0------------------------------------|
E|--------------3-3-3-----x-x-x-----x-x-x------------------------------------|

                G G G     D D D     A A A
E|--------------3-3-3-----2-2-2-----0-0-0------------------------------------|
B|--------------3-3-3--3--3-3-3--3--2-2-2--2---------------------------------|
G|-----0-0------0-0-0-----2-2-2-----2-2-2----2-------------------------------|
D|-2-2-----2-2--0-0-0-----0-0-0-----2-2-2------2-----------------------------|
A|--------------2-2-2-----x-x-x-----0-0-0------------------------------------|
E|--------------3-3-3-----x-x-x-----x-x-x------------------------------------|



CHORUS:
               A             Em            A              Em
E|-------------0--------------0------------0---------------0-----------------|
B|---------0-0-2------2-2-----0--------0-0-2-------2-2-----0-----------------|
G|-----0-0-----2-2--2-----2-2-0----0-0-----2-2-2-2-----2-2-0-----------------|
D|-2-2---------2--------------2--2---------2---------------2-----------------|
A|-------------0--------------2------------0---------------2-----------------|
E|-------------x--------------0------------x---------------0-----------------|

               A              Em           A
E|-------------0--------------0------------0---------------------------------|
B|---------0-0-2------2-2-----0--------0-0-2-------2-2-----------------------|
G|-----0-0-----2-2--2-----2-2-0----0-0-----2-2-2-2-----2-2-------------------|
D|---2---------2--------------2--2---------2---------------------------------|
A|-------------0--------------2------------0---------------------------------|
E|-------------x--------------0------------x---------------------------------|



END1:

  'Mad  World      Mad  World'
   Em  G-A         Em  G-A
E|-0---3-0---------0---3-0----------------------------------------------------|
B|-0---3-2---------0---3-2----------------------------------------------------|
G|-0---0-2---------0---0-2----------------------------------------------------|
D|-2---0-2---------2---0-2----------------------------------------------------|
A|-2---2-0---------2---2-0----------------------------------------------------|
E|-0---3-x---------0---3-x----------------------------------------------------|



END2:

  'Mad  World      Mad  World  Enlarge-your-world  Mad  World'
   Em  G-A         Em  G-A         Em  G-A         Em  G-A
E|-0---3-0---------0---3-0---------0---3-0---------0---3-0-------------------|
B|-0---3-2---------0---3-2---------0---3-2---------0---3-2-------------------|
G|-0---0-2---------0---0-2---------0---0-2---------0---0-2-------------------|
D|-2---0-2---------2---0-2---------2---0-2---------2---0-2-------------------|
A|-2---2-0---------2---2-0---------2---2-0---------2---2-0-------------------|
E|-0---3-x---------0---3-x---------0---3-x---------0---3-x-------------------|



SEQUENCE: INTRO - VERSES - CHORUS - END1 - VERSES - CHORUS - END2

NOTES: During the END1 and END2 a second guitar could play the INTRO (more times).
Tap to rate this tab
 
# A B C D E F G H I J K L M N O P Q R S T U V W X Y Z