Song name
# A B C D E F G H I J K L M N O P Q R S T U V W X Y Z

Gary Jules - Devil Keeps Grinning tab

-----------------------------------------------------------------------------
                      Gary Jules - Devil Keeps Grinning
-----------------------------------------------------------------------------
Tabbed by: Marcus Marchal (Warflojd)
E-mail: mackan_003_94@hotmail.com

Tuning: Standard
Capo: 2

I already know that the tab and the chords aren't spot on, but it works to play it this
way and it sounds alright if you play along to the actual song. This isn't actually the
full song, it's lacking a couple parts, but it shouldn't be too hard to figure out the 
rest by using this as a base.

The first and the second verse are basically the same, except for a slight change in the
plucking of the last bar.

By the way, this is my first tab, so don't be too hard on me!

Intro:

e|---------------------------------------------------------------------------|
B|------------3----3----3----3----3------------------------------------------|
G|------------0----0----0----0----0------------------------------------------|
D|--------0---4----2----2----0----0------------------------------------------|
A|--0h2-------2----3----3----3----2------------------------------------------|
E|---------------------------------------------------------------------------|

Verse 1:

Ooh ooh it's a funny old life
Bottle keeps spinning spinning..
e|------2------------2------------2-------------2----------------------------|
B|------3------------3------------3-------------3----------------------------|
G|------2---2---2----2---2---2----2---2---2-----2---2---2--------------------|
D|---0--------4---0--------4---0--------4---0---------4----------------------|
A|---------------------------------------------------------------------------|
E|---------------------------------------------------------------------------|

Devil keeps grinning, grinning..
e|---------------------------------------------------------------------------|
B|-----3--------------3----------------3--------------3----------------------|
G|-----0--------------0----------------0--------------0----------------------|
D|-----4---4----4-----4---4-----4------4---4----4-----4---4----4-------------|
A|------------2--------------2----------------2--------------2---------------|
E|--0---------------0----------------0--------------0------------------------|

Ooh ooh everybody is a star..
e|---------------------------------------------------------------------------|
B|-----3-------------3-------------3--------------3--------------------------|
G|-----0-------------0-------------0--------------0--------------------------|
D|-----0---0---0-----0---0---0-----0---0---0------0---0---0------------------|
A|-----------2-------------2-------------2--------------2--------------------|
E|--3--------------3-------------3--------------3----------------------------|

..Every son is in the shadow of the father now
e|------2---------------2--------------2-------------------------------------|
B|------3---------------3--------------3--------------------3----------------|
G|------2---2---2-------2---2---2------2---2---2------0--2-------------------|
D|---0--------4------0--------4-----0--------4-----0-------------------------|
A|---------------------------------------------------------------------------|
E|---------------------------------------------------------------------------|

Verse 2:

Ooh ooh it's a funny old life
Bottle keeps spinning spinning..
e|------2--------------2--------------2--------------2-----------------------|
B|------3--------------3--------------3--------------3-----------------------|
G|------2---2---2------2---2---2------2---2---2------2---2---2---------------|
D|---0--------4-----0--------4-----0--------4-----0--------4-----------------|
A|---------------------------------------------------------------------------|
E|---------------------------------------------------------------------------|

Devil keeps grinning, grinning..
e|---------------------------------------------------------------------------|
B|-----3--------------3----------------3--------------3----------------------|
G|-----0--------------0----------------0--------------0----------------------|
D|-----4---4----4-----4---4-----4------4---4----4-----4---4----4-------------|
A|------------2--------------2----------------2--------------2---------------|
E|--0---------------0----------------0--------------0------------------------|

Ooh ooh everybody is a star..
e|---------------------------------------------------------------------------|
B|-----3-------------3-------------3-------------3---------------------------|
G|-----0-------------0-------------0-------------0---------------------------|
D|-----0---0---0-----0---0---0-----0---0---0-----0---0---0-------------------|
A|-----------2-------------2-------------2-------------2---------------------|
E|--3------------3-------------3-------------3-------------------------------|

Dun-duh-duh..
e|------2-----------------------2--------------------------------------------|
B|------3-----------------------3--------3--3--------------------------------|
G|------2---2---2-----2p0-------2---2----0--0--------------------------------|
D|---0--------4---0-------4--0--------4--4--2--------------------------------|
A|---------------------------------------2--0--------------------------------|
E|---------------------------------------------------------------------------|
Tap to rate this tab
 
# A B C D E F G H I J K L M N O P Q R S T U V W X Y Z