Song name
# A B C D E F G H I J K L M N O P Q R S T U V W X Y Z

Gary Jules - Gone Daddy tab

-----------------------------------------------------------------------------
                         Gary Jules - Gone Daddy
-----------------------------------------------------------------------------
Tabbed by: Marcus Marchal (Warflojd)
E-mail: mackan_003_94@hotmail.com

Tuning: Drop D
Capo: 5

This tab is made from a youtubevideo of a person covering the original song by Gary Jules.

Link to the video: http://www.youtube.com/watch?v=bJM50CsgsvE&list=HL1380816518



e|-----------------------------------------------------------------------|
B|-----0--0-----------------0--0-----------------0--0--------------------|
G|-----2--2-----2-----0-----0--0-----0-----0-----2--2-----2--------------|
D|-----4--4--4-----4--------4--4--4-----4--------4--4--4-----0--2--4--2--|
A|-----------------------------------------------------------------------|
E|--0--------------------2--------------------0--------------------------|


e|--------------------------------------------------------|
B|--0--0----------------------------------3--5b3--5b3--3--|
G|--0--0-----0-----0-----------------2h4------------------|
D|--4--4--4-----4---------------2/4-----------------------|
A|-----------------------0h2h5----------------------------|
E|--------------------0-----------------------------------|


e|---------------------------------------|
B|--0-----------3------------------------|
G|--0--------------4--2------------------|
D|--4--4-----4-----------4--2--0--2h4p2--|
A|---------------------------------------|
E|--------0------------------------------|


e|-------------------------5--3--2-----2-------2-----0--2--0-----------|
B|--0--0--------------5/7-----------5-----3h5-----5-----------3--3--3--|
G|--0--0-----0-----0---------------------------------------------------|
D|--4--4--4-----4------------------------------------------------------|
A|---------------------------------------------------------------------|
E|---------------------------------------------------------------------|


e|--------------------------------------------------|
B|--3-------------3--3--3-------3--3----------------|
G|-----4--4\2----------------------------2--4--2h4--|
D|-------------4-----------2/4--------4-------------|
A|--------------------------------------------------|
E|--------------------------------------------------|


E|----------------------------------------|
B|-------------------0--------0-----------|
G|--4--4p2-----------0--------2-----0-----|
D|----------4--2--2-----4-----4--4--------|
A|----------------------------------------|
E|-------------------------0--------------|


E|----------------------------------------------|
B|-----0--0-----------------0--0----------------|
G|-----0--0-----0-----0-----2--2----------------|
D|-----4--4--4-----4--------4--4--4--0p2p4--2v--|
A|----------------------------------------------|
E|--2--------------------0----------------------|
Tap to rate this tab
# A B C D E F G H I J K L M N O P Q R S T U V W X Y Z