Guitaretab - guitar tabs
Song name
# A B C D E F G H I J K L M N O P Q R S T U V W X Y Z

Gary Jules - Falling Awake tab

-------------------------------------------------------------------------------
			     Falling Awake - Gary Jules
-------------------------------------------------------------------------------
Tabbed by: oelfass
Email: oelfass@oelfass.ch

Tuning: Standard Capo 5th

Saw him Play this song at Television and he played it like that
[ Tab from: http://www.guitaretab.com/g/gary-jules/83478.html ]
     (C)                   Eagle in the dark.. (G)
e|---------------------------------------------------------------------------|
B|---------------------------------------------------------------------------|
G|----------0-0---0----------0-0---0------------0-0---0-------0-0---0--------|
D|-------2------2----------2-----2------------0-----0------0------0----------|
A|----3-----------------3-------------------2------------2-------------------|
E|---------------------------------------------------------------------------|
   (Am)                Feathers in the pages.. (F)
e|---------------------------------------------------------------------------|
B|---------------------------------------------------------------------------|
G|--------2-2---2---------2-2---2---------------2-2---2---------2-2---2------|
D|------2-----2---------2-----2--------------3------3--------3------3--------|
A|----0---------------0--------------------3---------------3-----------------|
E|---------------------------------------------------------------------------|

And so on the whole Song.
At the end he strums the chords. 

Sometimes he Play's with the chords p.e 
   (F)
e|-----------------------------|
B|-----------------------------|
G|-----2-2---2-------0-0---0---|
D|---3-----3-------3-----3-----|
A|-3-------------3-------------|
E|-----------------------------|

The solo is played with a Piano so i didn't tab it. You can keep playing the same Chords meanwhile
Related for Falling Awake tab
Falling Awake chords by Gary Jules