Song name
# A B C D E F G H I J K L M N O P Q R S T U V W X Y Z

Gary Moore - Midnight Blues tab

-------------------------------------------------------------------------------
			     Midnight Blues - Gary Moore.
-------------------------------------------------------------------------------
Tabbed by:ToMo123321
Email:tomo123321v2@hotmail.co.uk

Tuning:Eb or standard depending on how good you are at vibratos
Tempo:85


i noticed there was no tab so i decided to transcribe this absolute classic
i am 99% sure this is correct this is the first part, you should probly listen 
to the song. verse 2 is in 3 bars to make it easier,don't kill your self sticking to the bars
there just here to make it easier to read in this case.


there's more come so look out,i just gota finsih it when its done ile submit.perfection is a must

intro
------
e|---8---------------------|--------------------|-------------------|------------------|
B|---8---------------------|--------------------|-------------------|------------------|
G|---8-------------------8-|--------------------|--------------8----|------------------|
D|--------------8---10-----|-10-------8--10-----|------8---10-------|--10-------8--10--|
A|----------10-------------|------10------------|--10---------------|-------10---------|
E|-------------------------|--------------------|-------------------|------------------|

verse 1       
-------
                                                                
                    ~~~~~~~                      ~~~~~~~                       ~~~~~~~  
e|---8----------------------|-------------------|--8------------------|------------------|
B|---8----------------------|-------------------|--8------------------|------------------|
G|---8-------------------8--|-------------------|--8--------------8---|------------------|
D|--------------8---10------|---10-------8---10-|---------8---10------|-10------8---10---|
A|----------10--------------|-------10----------|-----10--------------|-----10-----------|
E|--------------------------|-------------------|---------------------|------------------|


e|---8---------------------|--------------------|--8-----------------|-------------------|
B|---9---------------------|--------------------|--8-----------------|-------------------|
G|---10--------------------|--------------------|--8------------8----|-------------------|
D|-------------------------|--------------------|--------8--10-------|-10------8----10---|
A|----------------8----11--|--8-----------8--11-|----10--------------|-----10------------|
E|-------8-----11----------|------8---11--------|--------------------|-------------------|

                                                        nce here listen to get timing right
e|------------------------|--------------------|-------------------|--------------------|
B|------------------------|--------------------|--9----------------|--------------------|
G|--------------8---------|-10-----------------|--10---------------|--------------------|
D|------------------------|-9------------------|--10---------------|--------------------|
A|---8/10-----------------|-10-----------------|-------------------|--------------------|
E|------------------------|--------------------|-------------------|--------------------|

                   ~~~~~~~        2nd 10 is full                     ~~~~    full
e|---8---8-----------------|---------------------|---------------------|---------------|
B|---8---8-----------------|---------------------|--8------------------|---------------|
G|---8---8---------------8-|-------10--10---8--10|----8----------------|-8---(8)-------|
D|--------------8---10-----|--10-----------------|-------10---10-10-10-|---------10----|
A|----------10-------------|---------------------|---------10----------|---------------|
E|-------------------------|---------------------|---------------------|---------------|

verse 2
-------
                 ~~~~~~~                        ~~~~                           ~~~~
e|----8---8----------------------|-----8---------------------|-8--8------------------------|
B|----8---8----------------------|-----8---------------------|-8--8------------------------|
G|----8---8---------------8------|-----8---------------------|-8--8------------8-----------|
D|---------------8---10----------|10---------8---10----------|----------8---10-------------|
A|-----------10------------------|-------10------------------|----10-----------------------|
E|-------------------------------|---------------------------|-----------------------------|
 
                 ~~~~~~~                          ~~~~~~~                   ~~~~~~~  
e|------8----------------------|--8----8---------------------|-----8-----------------------|
B|------8----------------------|--9----9----------------8----|-----9-----------------------|
G|------8----------------------|-10---10--------8---10-------|-----10----------------------|
D|--10------------8---10-------|-----------10----------------|-10----------8---10----------|
A|----------10-----------------|-----------------------------|---------10------------------|
E|-----------------------------|-----------------------------|-----------------------------|




| /  slide up
| \  slide down
| h  hammer-on
| p  pull-off
| ~  vibrato
| +  harmonic
| x  Mute note
===============================================================================
Tap to rate this tab
# A B C D E F G H I J K L M N O P Q R S T U V W X Y Z