Song name
# A B C D E F G H I J K L M N O P Q R S T U V W X Y Z

Gary Moore - Walking By Myself tab

-------------------|
------------9------|
------------9------|
------------9------|  opening lick x5
-----5---5--7------|
---7---7-----------|

---------------------------------------------|
-----------------12-12----15-15-15-15-15-13--|
-----------------12-12----14-14-14-14-14-14--|
--------------------------13-13-13-13-13-13--|
--2--0--------------------14-14-14-14-14-14--|
-------3--0----------------------------------|

-----------------------------------------------------------------|
-----------------------------------------------------------------|
-----------------------------------------------------------------|
-----------------------------------------------------------------|
-2-2-4-4-2-2-4-4-2-2-4-4-5-5-4-4-2-2-4-4-5-5-4-4-----------------|
-0-0-0-0-0-0-0-0-0-0-0-0-0-0-0-0-0-0-0-0-0-0-0-0-----------------|

(mini turnaround)
---------------------|
---------------------|
---------------------|
---------------------|
---------------------|
-0-0-2-0-3-0-4-------|

------------------------------------|
------------------------------------|
------------------------------------|
--2-2-4-4-2-2-4-4-4-4-6-6-4-4-6-6---|
--0-0-0-0-0-0-0-0-2-2-2-2-2-2-2-2---|
------------------------------------|

------------------------------------|
------------------------------------|
------------------------------------|
------------------------------------|
-------------------5----------------|
-0-0-3-0-5-0-6-0-7---7--------------|

thats all i got, this is my second ever tab, be nice
Tap to rate this tab
 
# A B C D E F G H I J K L M N O P Q R S T U V W X Y Z