Song name
# A B C D E F G H I J K L M N O P Q R S T U V W X Y Z

Gary Moore - End Of The World tab

This is my attempt at the first part of the intro solo in Gary Moore's "End of the 
I haven't heard the full song, but I have heard this part a LOT. Here goes:

End of the World
Gary Moore
Corridors of Power

TUNING: Standard
TEMPO: Fast Rock, approx. 176

e--12p0-10p0-8p0-7p0--------------------------------------------------|
B--------------------10p0-8p0-7p0-------------------------------------|
G---------------------------------9p0-7p0-----------------------------|
D-----------------------------------------10p0-9p0-7p0----------------|
A------------------------------------------------------10p0-9p0-7~~---|
E---------------------------------------------------------------------|

e--12p0-10p0-8p0-7p0----------------------------------------------------|
B--------------------10p0-8p0-7p0---------------------------------------|
G---------------------------------9p0-7p0----------------------------7~-|
D-----------------------------------------10p0-9p0-7p0------------------|
A------------------------------------------------------10p0-9p0-10p0----|
E-----------------------------------------------------------------------|

e--12p0-10p0-8p0-7p0-----------------------------------------------------|
B--------------------10p0-8p0-7p0----------------------------------------|
G---------------------------------9p0-7p0--------------------------------|
D-----------------------------------------10p0-9p0-7p0---------------7p0-|
A------------------------------------------------------10p0-9p0-10p0-----|
E------------------------------------------------------------------------|

e--------------------------------------|
B--------------------------------------|
G--------------------------------------|
D----------------7p0---------------7p0-|
A--10p0-9p0-10p0-----10p0-9p0-10p0-----|
E--------------------------------------|

All of these notes are sixteenth notes, by the way.

Enjoy...\m/
Tap to rate this tab
# A B C D E F G H I J K L M N O P Q R S T U V W X Y Z