Song name
# A B C D E F G H I J K L M N O P Q R S T U V W X Y Z

Gary Moore - Hiroshima tab

Band Name: Gary Moore
Song Name: Hiroshima
Tabbed By: Terry Sims (Masterofdarknes)
Email: Floyd_Fan89@teenspot.com


 Intro

-|-------------------------------------------------|
-|-------------------------------------------------|
-|-------------------------------------------------|
-|-------9---------9----------9--------------------|
-|-------7---------7----------7--------------------|
-|--0-0-------0-0------0-0-0------0-2-3-5-3-2-0----|
    ^ ^       ^ ^      ^ ^ ^      ^ ^ ^ ^ ^ ^ ^
           ^     =     Palm Mute

-|------------------------------------------------|
-|------------------------------------------------|
-|------------------------------------------------|
-|-------9-----------9-------7--------5-----------|
-|-------7-----------7-------5----s---3-----------|
-|--0-0---------0-0-------------------------------|   x4
Tap to rate this tab
# A B C D E F G H I J K L M N O P Q R S T U V W X Y Z