Song name
# A B C D E F G H I J K L M N O P Q R S T U V W X Y Z

Gary Moore - Need Your Love So Bad tab

Band Name: Gary Moore
Song Name: Need Your Love So Bad
Tabbed By: Terry Sims (Masterofdarknes)
Email: Floyd_Fan89@teenspot.com

% = Rest

Intro Solo
---------------------|-|----------------------------------------------|-|
--------10--12b--12b-|-|----10h12----10--12\------------10--12-----10-|-|
-9--11---------------|%|-11-------11-----------9--9--11--------11-----|%|
---------------------|-|----------------------------------------------|-|
---------------------|-|----------------------------------------------|-|
---------------------|-|----------------------------------------------|-|


---------------------------------------------------|-|--------12b-----------|
----10--------13br-12b--10------10--12--12b--12p10-|-|-12b------------12b12-|
-11-------11-----------------11--------------------|%|----------------------|
---------------------------------------------------|-|----------------------|
---------------------------------------------------|-|----------------------|
---------------------------------------------------|-|----------------------|


----------------------------|-|-5---8-------10--11--12----------------------|
-10----10------10h12--------|-|-7--10-------12--13--14----------------------|
------------11-------11--10-|%|---------------------------------------------|
----------------------------|-|---------------------------------------------|
----------------------------|-|---------------------------------------------|
----------------------------|-|---------------------------------------------|
Tap to rate this tab
 
# A B C D E F G H I J K L M N O P Q R S T U V W X Y Z