Song name
# A B C D E F G H I J K L M N O P Q R S T U V W X Y Z

Gary Moore - Devil In Her Heart tab

This is kind of a rare song by Gary Moore, if my memory serves me it's off the Victims
the Future album as one of two bonus tracks but it's in my opinion one of his best songs.
across is listening to Paul Gilbert one day and have been a big fan ever since. This is 
tab for this song available on the internet and it's dedicated to you guys the
I spent many a sleepless night trying to tab out this solo...so...enjoy.


Opening Riff (Verses)


e|------|----------------------------|----------|
B|------|----------------------------|----------|
G|------|---------------------3---5--|------x-x-|
D|------|---5---3---5---x-x---3---5--|------x-x-|
A|---x\-|---5---3---5---5-5----------|------x-x-|
E|--12\-|----------------------------|----------|

e|---------------------------|------------------|
B|---------------------------|------------------|
G|---------------------3-----|------------------|
D|---5---3---5---x-x---3---3-|---------x-x------|
A|---5---3---5---5-5-------3-|---------x-x------|
E|---------------------------|---------x-x------|

Chorus

e|---------------------|------------------------|
B|---------------------|------------------------|
G|--3-3-3-3-3-3-3-3----|------------------------|
D|--1-1-1-0-0-0-1-1----|------------------------|
A|---------------------|--3-3-3-3-3-3-3---------|
E|---------------------|--1-1-1-0-0-0-1---------|


Solo


e|----------------------------|---------------|-------------------|
B|----------------------------|---------------|-------------------|
G|-----530----530----530------|---------------|-------------------|
D|---------3------3------3----|--530----------|--------3----5-----|
A|----------------------------|------3--5--1--|--------1----3-----|
E|-3--------------------------|------------3--|-------------------|

e|-------|--630-530--------------------------|-----20-18-20-------|
B|-------|----------630-530------------------|--------------23-20-|
G|-------|------------------530-530-----530--|--------------------|
D|-------|--------------------------530------|--------------------|
A|--12\--|-----------------------------------|--------------------|
E|-------|-----------------------------------|--------------------|

e|--20--18--20--22~----|----------|----------|--15-15-------------|
B|---------------------|----------|----------|--------17-15-------|
G|---------------------|----------|----------|--------------------|
D|---------------------|----3--5--|----------|--------------------|
A|---------------------|----1--3--|----------|--------------------|
E|---------------------|-3--------|-------8\-|--------------------|

e|--15-15-------15-15-------15-15-------|----17---17/19-----------|
B|-------17-15-------17-15-------17-15--|-------------------------|
G|--------------------------------------|-------------------------|
D|--------------------------------------|-------------------------|
A|--------------------------------------|-------------------------|
E|--------------------------------------|-------------------------|

e|---------------------|---------------------|-15-----------------|
B|----17(18)-----------|--18(20)18---18(20)--|--18-15-------------|
G|--0-17(18)------\x0--|---------------------|-------18-17-17-(19)|
D|---------------------|---------------------|--------------------|
A|---------------------|---------------------|--------------------|
E|---------------------|---------------------|--------------------|

e|-3-------------------|------------------------------------------|
B|---6-3---------------|--6---------------------------------------|
G|-------6-5-3-5-(7)---|----5-(6)-5--(5)-3-0----------------------|
D|---------------------|------------------------------------------|
A|---------------------|------------------------------------------|
E|---------------------|----------------------------x\0-----------|

e|---------------------------------|------------------------------|
B|---------------------------------|------------------------------|
G|---------------------------------|------------------------------|
D|-----353----353----353---575-----|------787---------18-10-18----|
A|--535---535----535----578---8----|-8-10----10-10-12-------------|
E|---------------------------------|------------------------------|

e|-----------------------------------------|
B|-----------------------------------------|
G|-----------------------------10-12-10----|
D|-----------10-12-10----10-12----------12-|
A|--12-12-13----------13-------------------|
E|-----------------------------------------|

e|-----------------------------------------------------------------|
B|-----------------------------------------------------------------|
G|------10-12-10--------12-14-12--------14-15-14-----14-15-17-15-14|
D|-10-12--------12-14-15--------15-15-17--------17-17--------------|
A|-----------------------------------------------------------------|
E|-----------------------------------------------------------------|

e|-----------------18-20--(21)--(22)~~~~---|
B|--17-15-17/20----------------------------|
G|-----------------------------------------|
D|-----------------------------------------|
A|-----------------------------------------|
E|-----------------------------------------|

And there you have it. I hope it's a help to any of you out there who are Gary Moore
such as I.

Tabbed by: Mike 'Big Bear' Lawless
Tap to rate this tab
# A B C D E F G H I J K L M N O P Q R S T U V W X Y Z