Song name
# A B C D E F G H I J K L M N O P Q R S T U V W X Y Z

Gary Moore - The Loner tab

E|--------------------------------------------------------------------|
B|----------------3---------------------------------------------------|
G|-0---5-7/8--0-1--------3-5-7----------------------------------------|
D|---------------------3--------3-5-----------------------------------|
A|--------------------------------------------------------------------|
E|--------------------------------------------------------------------|

E|--------------------------------------------------------------------|
B|--------------------------------------------------------------------|
G|--------------------------------------------------------------------|
D|---1-3-5-----5---5-7-7^(8)------------------------------------------|
A|-1-------1-0--------------------------------------------------------|
E|--------------------------------------------------------------------|

E|--------------------------------------------------------------------|
B|--------------------------------------------------------------------|
G|-5^(7)-5-3-2--------------5^(7)-5-3-2-------------------------------|
D|--------------5-3---5------------------5-3-5------------------------|
A|------------------5-------------------------------------------------|
E|--------------------------------------------------------------------|

E|--------------------------------------------------------------------|
B|---8-10/11------11--------6-8/10------------------------------------|
G|-7----------7/8---------5--------5/7--------------------------------|
D|--------------------------------------------------------------------|
A|--------------------------------------------------------------------|
E|--------------------------------------------------------------------|

To Be Continued...!
Tap to rate this tab
# A B C D E F G H I J K L M N O P Q R S T U V W X Y Z