Gary Moore - Still Got The Blues Live tab

-----------------------------------------------------------------------------	     
Still Got The Blues - Gary Moore
-----------------------------------------------------------------------------
Tabbed by:scottb630
Email:scottb722 at yahoo dot com

Tuning: Standard

Although The other tabs I've seen for this are the correct notes, 
this is an alternate way to play the main lead riff. 
If you look closely at Gary Moore's live version, 
this is one of the ways he plays it.

Overdriven Marshall / Les Paul, 
(Neck Pickup, later, in the middle of the longer lead, 
he switched to the bridge pick up, then back to the neck to end),  
 

	f-full bend	
	h-half bend 
	

1st Time Through:             
                                                         
E-----10-12-13---13-12-10-------10-12--12-10--------|
B--10-----------------------13---------------13-10--|
G---------------------------------------------------|
D---------------------------------------------------|
A---------------------------------------------------|
E---------------------------------------------------|
             
                         f     f           h
E----------------------------------------------------------|
B-10-12-13-10--10-12-13--13---13--13-12-10----10-10-12-13--|
G------------------------------------------12--------------|
D----------------------------------------------------------|
A----------------------------------------------------------|
E----------------------------------------------------------| 



2nd Time Through
                                             
E-----10-12-13---15-12-10-------10-12--12-10-------|
B--10-----------------------13---------------13-10-|
G--------------------------------------------------|
D--------------------------------------------------|
A--------------------------------------------------|
E--------------------------------------------------|

            f     f           h
E---------------------------------------------|
B-10-12-13--13---13--13-12-10----10vvvvvv-----|
G-----------------------------12--------------|
D---------------------------------------------|
A---------------------------------------------|
E---------------------------------------------|
Tap to rate this tab
 
# A B C D E F G H I J K L M N O P Q R S T U V W X Y Z