Song name
# A B C D E F G H I J K L M N O P Q R S T U V W X Y Z

Gary Moore - Empty Rooms tab

Empty Rooms - Extended Solo
===========================

I couldn't find any tab anywhere for Gaz's 
excellent extended Empty Rooms solo

So I have had a go at tabbing it ... just as a
starter

It's almost there but feel free to enhance !

^ - bend up
V - release
h - hammer on
p - pull off

e|-------------10------------------------------|
B|-13^15v13-13----10-8-6-----------------------|
G|-----------------------7-5-7-----------------|
D|-----------------------------5-3-------------|
A|---------------------------------5-----------|
E|---------------------------------------------|

e|---------------------------------------------|
B|---------------------------------------------|
G|---------------------------------------------|
D|-------2-3-5^7^8v5-3-2-3-2-3-5-3-5-7---------|
A|---3-5---------------------------------------|
E|-3-------------------------------------------|

e|---------------------------------------------|
B|---------------------------------------------|
G|-7h9h10p9p7h9h10-12^14v12-12-10-12-----------|
D|---------------------------------------------|
A|---------------------------------------------|
E|---------------------------------------------|

e|---------------------------------------------|
B|-13-10h13p10---------------------------------|
G|-------------10h12p10----9-10----------------|
D|----------------------12---------------------|
A|---------------------------------------------|
E|---------------------------------------------|


e|-13-10h13p10---10-12-13-10-12-13-------------|
B|------------13-------------------------------|
G|---------------------------------------------|
D|---------------------------------------------|
A|---------------------------------------------|
E|---------------------------------------------|


e|-15^17^18V15---------------------------------|
B|---------------------------------------------|
G|---------------------------------------------|
D|---------------------------------------------|
A|---------------------------------------------|
E|---------------------------------------------|

e|-------------------------17-20^22v20-20^22V20-20-17h18p17---|
B|-18-17-18-17----17-18-20---------------------------------20-|
G|-------------19---------------------------------------------|
D|------------------------------------------------------------|
A|------------------------------------------------------------|
E|------------------------------------------------------------|

e|----15-17^18v17p15----10h13p10------------------|
B|-15----------------18----------11h13^15V13p11p10|
G|------------------------------------------------|
D|------------------------------------------------|
A|------------------------------------------------|
E|------------------------------------------------|

e|---------------------------------------------|
B|--------------------13-----------------------|
G|-12-10-9----9-10-12----12^14v12--------------|
D|---------12----------------------------------|
A|---------------------------------------------|
E|---------------------------------------------|

e|-------13-12----12-13-15^17^15p12------------|
B|----15-------15-------------------15---------|
G|-14------------------------------------------|
D|---------------------------------------------|
A|---------------------------------------------|
E|---------------------------------------------|

tabbed by nsummers123
Tap to rate this tab
 
# A B C D E F G H I J K L M N O P Q R S T U V W X Y Z