Song name
# A B C D E F G H I J K L M N O P Q R S T U V W X Y Z

Gary Moore - Parisienne Walkways tab

Intro

Riff1:
------------|
------------|
------------|
--7\--------|
-----7\-----|
--------8\--|

Riff2:
----------------------------------------------------------------------|
--15b17-15-13p12----------15b17r15---15r13-12-------------13b15r13----|
-----------------14-12------------------------14-12-------------------|
-----------------------15~~-------------------------15-14~~-----------|
----------------------------------------------------------------------|
----------------------------------------------------------------------|

------------------------------------------------------------------|
--10h12b13-12-----------------12b13r12---12r10-9------------------|
--------------14-12------------------------------10-9-------------|
--------------------15-14-12~~------------------------12-10-------|
------------------------------------------------------------------|
------------------------------------------------------------------|

Riff1:
------------|
------------|
------------|
--7\--------|
-----7\-----|
--------8\--|
Tap to rate this tab
# A B C D E F G H I J K L M N O P Q R S T U V W X Y Z