Song name
# A B C D E F G H I J K L M N O P Q R S T U V W X Y Z

Gary Moore - Over The Hills And Far Away tab

I realise this is not perfect but this is how I play it personally. Some of the parts 
are mine but most of it is off the record so hopefully you can get the general
idea from this.

Intro

e-------------------------------------------------------|
B-------------------------------------------------------|
G-------------------4-----5-4---4-----------------------|
D---5-4-------7---------------7-------------4-5-7-5-4---|
A-7-----7-7-7---7-7---7-7---------7-7-7-5-7-----------5-|
E-------------------------------------------------------|

e-------------------------------------------------|
B-------------------------------------------------|
G-------------4-----5-4-----------4-5-7-5-4-------|
D-------7---------------7-7-7-7-7-----------7-5-4-|
A-7-7-7---7-7---7-7-------------------------------|
E-------------------------------------------------|

Alternatively if you struggle with the way Gary plays it then you can play it using the 
easier method which is this:

e---------------------------------------------------------|
B---------------------------------------------------------|
G---------------------------------------------------------|
D---4-5-------7-----9-----10-9-7-9------------4-5-7-5-4---|
A-7-----7-7-7---7-7---7-7----------7-7-7-5-7------------5-|
E---------------------------------------------------------|

e-----------------------------------------------------|
B-----------------------------------------------------|
G---------------------------------------7-------------|
D-------7-----9-----10-9-7-7-7-7-7-9-10---10-9-7------|
A-7-7-7---7-7---7-7------------------------------10-9-|
E-----------------------------------------------------|

Verse 1

e-------------------------------------------------------------------------|
B-------------------------------------------------------------------------|
G-------------------------------------------------------------------------|
D-9-9-9-9-9-9-9-9-9-------------------9-9-9-9-9-9-9-9-9-7-7-7-7-7-7-7-7-7-|
A-7-7-7-7-7-7-7-7-7-5-5-5-5-5-5-5-5-5-7-7-7-7-7-7-7-7-7-5-5-5-5-5-5-5-5-5-|
E-------------------3-3-3-3-3-3-3-3-3-------------------------------------|

There is an extra guitar in this verse that plays this over the D chord (A:5 D:7)

e-----------------------------|
B-----------------------------|
G-19-19-19-19-19-19-19-19-19w-|
D-----------------------------|
A-----------------------------|
E-----------------------------|

e-------------------------------------------------------------------------|
B-------------------------------------------------------------------------|
G-------------------------------------------------------------------------|
D-9-9-9-9-9-9-9-9-9-------------------9-9-9-9-9-9-9-9-9-7-7-7-7-7-7-7-7-7-|
A-7-7-7-7-7-7-7-7-7-5-5-5-5-5-5-5-5-5-7-7-7-7-7-7-7-7-7-5-5-5-5-5-5-5-5-5-|
E-------------------3-3-3-3-3-3-3-3-3-------------------------------------|

e------------|
B-----17-----|
G-19b----19b-|
D------------|
A------------|
E------------|

Pre-Chorus 1

e-----------------------------------------------------------------|
B-----------------------------------------------------------------|
G-----------------------------------------------------------------|
D-5-5-5-5-5-5-5-5-5-5-5-5-5-5-5-5-7-7-7-7-7-7-7-7-7-7-7-7-7-7-7-7-|
A-3-3-3-3-3-3-3-3-3-3-3-3-3-3-3-3-5-5-5-5-5-5-5-5-5-5-5-5-5-5-5-5-|
E-----------------------------------------------------------------|

e---------------------------------------------------------------------|
B---------------------------------------------------------------------|
G---------------------------------------------------------------------|
D-5-5-5-5-5-5-5-5-5-5-5-5-5-5-5-5-7-7-7-7-7-7-7-7-7-7-4-4-4-4-4-4-4-7-|
A-3-3-3-3-3-3-3-3-3-3-3-3-3-3-3-3-5-5-5-5-5-5-5-5-5-5-2-2-2-2-2-2-2-5-|
E---------------------------------------------------------------------|

Chorus 1

e-----------------|
B-----------------|
G-----------------|
D-9---7-9-7---5-7-|
A-7-5-5-7-5-5-3-5-|
E---3-------3-----|

Verse 2

e-------------------------------------------------------------------------|
B-------------------------------------------------------------------------|
G-------------------------------------------------------------------------|
D-9-9-9-9-9-9-9-9-9-------------------9-9-9-9-9-9-9-9-9-7-7-7-7-7-7-7-7-7-|
A-7-7-7-7-7-7-7-7-7-5-5-5-5-5-5-5-5-5-7-7-7-7-7-7-7-7-7-5-5-5-5-5-5-5-5-5-|
E-------------------3-3-3-3-3-3-3-3-3-------------------------------------|

Again there is a second guitar in here. * means pinch harmonic.

e---------------------|
B---------------------|
G---------------------|
D---------------------|
A-7-9-10-9-7-9-7-5-7*-|
E---------------------|

e-------------------------------------------------------------------------|
B-------------------------------------------------------------------------|
G-------------------------------------------------------------------------|
D-9-9-9-9-9-9-9-9-9-------------------9-9-9-9-9-9-9-9-9-7-7-7-7-7-7-7-7-7-|
A-7-7-7-7-7-7-7-7-7-5-5-5-5-5-5-5-5-5-7-7-7-7-7-7-7-7-7-5-5-5-5-5-5-5-5-5-|
E-------------------3-3-3-3-3-3-3-3-3-------------------------------------|

e----------|
B----------|
G----------|
D----------|
A-5*-7*-7*-|
E----------|

Pre Chorus 2

e-----------------------------------------------------------------|
B-----------------------------------------------------------------|
G-----------------------------------------------------------------|
D-5-5-5-5-5-5-5-5-5-5-5-5-5-5-5-5-7-7-7-7-7-7-7-7-7-7-7-7-7-7-7-7-|
A-3-3-3-3-3-3-3-3-3-3-3-3-3-3-3-3-5-5-5-5-5-5-5-5-5-5-5-5-5-5-5-5-|
E-----------------------------------------------------------------|

e---------------------------------------------------------------------|
B---------------------------------------------------------------------|
G---------------------------------------------------------------------|
D-5-5-5-5-5-5-5-5-5-5-5-5-5-5-5-5-7-7-7-7-7-7-7-7-7-7-4-4-4-4-4-4-4-7-|
A-3-3-3-3-3-3-3-3-3-3-3-3-3-3-3-3-5-5-5-5-5-5-5-5-5-5-2-2-2-2-2-2-2-5-|
E---------------------------------------------------------------------|

There is a second guitar in here this time playing this:

e-------------------------------------------------------|
B-5-7-7-5-5-7-7-8-8-7-7-8-8-7-7-7-7-5-5-5-5-7-7-8-8-7-7-|
G-5-7-7-5-5-7-7-7-7-7-7-7-7-7-7-7-7-5-5-5-5-7-7-7-7-7-7-|
D-------------------------------------------------------|
A-------------------------------------------------------|
E-------------------------------------------------------|

And then

e-------------------|
B-------------------|
G-19-19-19-19-19-19-|
D-------------------|
A-------------------|
E-------------------|

Chorus 1

e-----------------|
B-----------------|
G-----------------|
D-9---7-9-7---5-7-|
A-7-5-5-7-5-5-3-5-|
E---3-------3-----|

Bridge * means natural harmonic.

e-------------|
B----7*-------|
G-7*----7*-7*-|
D-------------|
A-------------|
E-------------|

e-------------------------------------------------------------------------|
B-------------------------------------------------------------------------|
G----11-12----------14-------16-------17-16-14-16----------------11-12-14-|
D-14-------14-14-14----14-14----14-14-------------14-14-14-12-14----------|
A-------------------------------------------------------------------------|
E-------------------------------------------------------------------------|

e-------------------------------------------------------------------------|
B----------------------------------------------------------------15-------|
G-12-11-------------14-------16-------17-16-14-14-14-14-14-16-17----17-16-|
D-------12-14-14-14----14-14----14-14-------------------------------------|
A-------------------------------------------------------------------------|
E-------------------------------------------------------------------------|

e----------|
B----------|
G-14-------|
D----17-16-|
A----------|
E----------|

e---------------|
B---------------|
G---------------|
D-9---9---9---9-|
A-7---7---7---7-|
E---------------|

e----12-12-12-12-14-12------------------12-12-12-12-14-12----------|
B-12-------------------15-12----------12------------------15-12-15-|
G----------------------------14-12-14------------------------------|
D------------------------------------------------------------------|
A------------------------------------------------------------------|
E------------------------------------------------------------------|

e----12-12-12-12-14-15-14-12-14-12-10-12-10----10--------------------|
B-12----------------------------------------12----12-10-12-10-8-10-8-|
G--------------------------------------------------------------------|
D--------------------------------------------------------------------|
A--------------------------------------------------------------------|
E--------------------------------------------------------------------|

Solo * means pinch harmonic

e-------------------------------------------------------------------------|
B-----------------------------8p5-8p5-8p5-7p5-7p5-7p5-8p5-8p5-8p5-7p5-7p5-|
G-9-9-9-9-9-9-7---7-7-7-7-7-7/--------------------------------------------|
D---------------9---------------------------------------------------------|
A-------------------------------------------------------------------------|
E-------------------------------------------------------------------------|

e-------------------------------------------------|
B-8-7-5-------------------------------------------|
G-------7-5-4--------------------------------7-9*-|
D----------------------9-----------9-------9------|
A----------------7-7-7---7-7-7-7-7---7-7-7--------|
E-------------0w----------------------------------|

Tremolo pick all of this

e-14-15-17-19-20-22-22b-|
B-----------------------|
G-----------------------|
D-----------------------|
A-----------------------|
E-----------------------|

Pre Chorus 3

Guitar 1

e-----------------------------------------------------------------|
B-----------------------------------------------------------------|
G-----------------------------------------------------------------|
D-5-5-5-5-5-5-5-5-5-5-5-5-5-5-5-5-7-7-7-7-7-7-7-7-7-7-7-7-7-7-7-7-|
A-3-3-3-3-3-3-3-3-3-3-3-3-3-3-3-3-5-5-5-5-5-5-5-5-5-5-5-5-5-5-5-5-|
E-----------------------------------------------------------------|

e---------------------------------------------------------------------|
B---------------------------------------------------------------------|
G---------------------------------------------------------------------|
D-5-5-5-5-5-5-5-5-5-5-5-5-5-5-5-5-7-7-7-7-7-7-7-7-7-7-4-4-4-4-4-4-4-7-|
A-3-3-3-3-3-3-3-3-3-3-3-3-3-3-3-3-5-5-5-5-5-5-5-5-5-5-2-2-2-2-2-2-2-5-|
E---------------------------------------------------------------------|


Guitar 2 * means natural harmonics.

e---------------------------------------------------------|
B-19b-19-17-19-19b-19-------------------7*-7*-7*----------|
G---------------------7*-7*-7*-------------------7*-7*-7*-|
D------------------------------7*-7*-7*-------------------|
A---------------------------------------------------------|
E---------------------------------------------------------|

e----------------------18b-20b-|
B-19b-19-17-19-18b-20b---------|
G------------------------------|
D------------------------------|
A------------------------------|
E------------------------------|

Chorus 2

e-------------------|
B-------------------|
G-------------------|
D-11---9-11-9---7-9-|
A-9--7-7-9--7-7-5-7-|
E----5--------5-----|

Outro

"Over the hills..."

e-------------------------------------------|
B-------------------------14-12----12h14p12-|
G-9-11-13-13b(14)11-13-14-------14----------|
D-------------------------------------------|
A-------------------------------------------|
E-------------------------------------------|

e----------------------------------------|
B-------------------------14-12----14-12-|
G-9-11-13-13b(14)11-13-14-------14-------|
D----------------------------------------|
A----------------------------------------|
E----------------------------------------|

Outro Solo * means pinch harmonic

e-----------------------|
B-----------------------|
G-----------------------|
D-------7*----------9b*-|
A-7*-9*----9*-7*-9*-----|
E-----------------------|

e------------------------------------------------------------------------|
B------------------------------------------------------------------------|
G---------------------------------------------------------------------19-|
D-9-7-9-11-9-11-12-11-12-14-12-14-16-14-16-18-16-18-19-18-19-21-19-21----|
A------------------------------------------------------------------------|
E------------------------------------------------------------------------|

e---------------------------------------------------------------|
B------------------19-21-21b(22)-21p19--------------------------|
G-21br-21b-18b(19)---------------------21b-21-19-18-------18----|
D---------------------------------------------------21-19----21-|
A---------------------------------------------------------------|
E---------------------------------------------------------------|

e---------------------------------------------------|
B----------------------22b-22b-22-19----------------|
G-----18h21p18-----x15---------------21-19----------|
D-/21----------21--------------------------21-19-21-|
A---------------------------------------------------|
E---------------------------------------------------|

e----------------------------------------|
B----------------------------------------|
G----------------------------------------|
D-------------7-7-7-----------------7*---|
A-7-7-7-9-9-9-------9-9-9-7-7-7-9-9----9-|
E----------------------------------------|

e-------------------------------------------------------------------------|
B-------------------------------------------------------------------------|
G-------------------------------------------------------------------------|
D----------5*----------------5*----------------5*----------------5*-------|
A-4*-5*-7*----7*-5*----5*-7*----7*-5*----5*-7*----7*-5*----5*-7*----7*-5*-|
E-------------------7*----------------7*----------------7*----------------|

e--------------------------------------------------------------------|
B--------------------------------------------------------------------|
G--------------------------------------------------------------------|
D----------5*----------------5*----------------5*-----------------5*-|
A----5*-7*----7*-5*----5*-7*----7*-5*----5*-7*----7*-5*-----5*-7*----|
E-7*----------------7*----------------7*-----------------7*----------|

Tremolo pick all of this

e-14-15-17-19-20-22-22b-|
B-----------------------|
G-----------------------|
D-----------------------|
A-----------------------|
E-----------------------|

Song Order:

Intro
Verse 1
Pre-Chorus 1
Chorus 1
Verse 2
Pre-Chorus 2
Chorus 1
Bridge
Solo
Pre-Chorus 3
Chorus 2
Outro
Outro Solo

That's it! Enjoy :)
Tap to rate this tab
# A B C D E F G H I J K L M N O P Q R S T U V W X Y Z