Song name
# A B C D E F G H I J K L M N O P Q R S T U V W X Y Z

Gary Moore - So Far Away tab

-------------------------------------------------------------------------------
                So Far Away - Gary Moore
-------------------------------------------------------------------------------
Tabbed by -     BluesRock5293
E-mail -                coldhardblues@hotmail.com

Tuning - EADGBE (Standard)


e|------------------12--------------------12---------------------------------|
B|---13--------13-------13-----------13-------15-------------------15--12----|
G|---------14--------------------14--------------------12--14b16-------------|
D|---------------------------------------------------------------------------|
A|---------------------------------------------------------------------------|
E|---------------------------------------------------------------------------|

e|--------12--------------12---------------------12---------------------------------------|
B|---10--------------13-------13------------13-------15-------------------15--12--10------|
G|---------------14---------------------14--------------------12--14b16-------------------|
D|----------------------------------------------------------------------------------------|
A|----------------------------------------------------------------------------------------|
E|----------------------------------------------------------------------------------------|

e|-----------------------------------------------------10-----------------10--------------|
B|--8-----------8-----------8-----------10---------11-------11--------11-------11---------|
G|------10--8-------10--8-------10--8----------12-----------------12-----------------12---|
D|----------------------------------------------------------------------------------------|
A|----------------------------------------------------------------------------------------|
E|----------------------------------------------------------------------------------------|

e|-------10--15--|------------------12-----------------12----------------------------------|
B|--11-----------|---13--------13-------13---------13-------15-----------------15--12------|
G|----------------|--------14------------------14------------------12--14b16---------------|
D|----------------|------------------------------------------------------------------------|
A|----------------|------------------------------------------------------------------------|
E|----------------|------------------------------------------------------------------------|

e|---15--12-------------12------------------12---------------------------------------------|
B|------------------13-------13--------13-------15-----------------15--12----10------------|
G|-------------14------------------14------------------12--14b16---------------------------|
D|-----------------------------------------------------------------------------------------|
A|-----------------------------------------------------------------------------------------|
E|-----------------------------------------------------------------------------------------|

e|------------------------------------------------------------10----------------10-10------|
B|--8-----------8------------11--8-----------10-----------11-------11-------11-------------|
G|------10--8-------10--8------------10--8-----------12-----------------12-----------------|
D|-----------------------------------------------------------------------------------------|
A|-----------------------------------------------------------------------------------------|
E|-----------------------------------------------------------------------------------------|

e|----------------10----15---10-------------------------------------------------------------|
B|-11--------11--------------------10---8---------------------------------------------------|
G|-------12---------------------------------------------------------------------------------|
D|------------------------------------------------------------------------------------------|
A|------------------------------------------------------------------------------------------|
E|------------------------------------------------------------------------------------------|


************************************

| b   Bend

************************************
Tap to rate this tab
# A B C D E F G H I J K L M N O P Q R S T U V W X Y Z