Song name
# A B C D E F G H I J K L M N O P Q R S T U V W X Y Z

Gary Moore - Dont Believe A Word tab

This is the solo from the "Back on the Streets" version of Dont believe a word by Gary Moore. 

solo            Am              Am                 Dm      C          G
e-|-----------------------------------------------------------------------------------------|
B-|-------------------------------5-----5------------------------------10-13--13/15--15/17--|
G-|-(9)r7-5-----------7b(9)-7-5-7-------5---------------------------10----------------------|
D-|---------7-5-7---/7-------------7-----h7-------------------10-12-------------------------|
A-|------------------------------------------------8-10-10/12-------------------------------|
E-|-----------------------------------------8-9-10------------------------------------------|


        Am        G     F        Am             Dm           C         G
e-|-5-7-8-7-5----------5-7-8-7-5h7p5--5-----------5-------------------------------|
B-|-----------5-8b(10)---------------8-8-5-------5--8-5---------------------------|
G-|-----------------------------------------7b(9)-------7b(9)r7-5-7-5-------------|
D-|--------------------------------------------------------------------7---5-7----|
A-|----------------------------------------------------------------------7--------|
E-|-------------------------------------------------------------------------------|


                      Am                                         Dm
e-|-13b(15)r12-10--10-12-13-12-10h12p10--10----------------------10-12-10h12p10-|
B-|--------------13--------------------13--10-13-13b(15)----10-13---------------|
G-|-----------------------------------------------------------------------------|
D-|-----------------------------------------------------------------------------|
A-|-----------------------------------------------------------------------------|
E-|-----------------------------------------------------------------------------|


                C                           G
e-|----10------------------------------------------------------------|
B-|-13----13-10-----------------10-----------------------------------|
G-|-------------12b(14)r12-10-12--12-10------------------------------|
D-|-------------------------------------12-10------------------------|
A-|------------------------------------------12-10-10\8----8---8-----|
E-|-----------------------------------------------------10---10------|


                                       Am                     G        F
e-|--------------------------10-12-13-15-15b(17)-15-12--------12-------------|
B-|-----------------10-12-13---------------------------15b(17)----13---------|
G-|-----------10-12---------------------------------------------14-----------|
D-|------10-12---------------------------------------------------------------|
A-|-10/12--------------------------------------------------------------------|
E-|--------------------------------------------------------------------------|


        Dm          C                      G
e-|-----17-20-22-----22b(24)-22b(24)r22-20-20h22--------------------------------|
B-|---18------------------------------------------------------------------------|
G-|-19--------------------------------------------------------------------------|
D-|-----------------------------------------------------------------------------|
A-|-----------------------------------------------------------------------------|
E-|-----------------------------------------------------------------------------|
Tap to rate this tab
# A B C D E F G H I J K L M N O P Q R S T U V W X Y Z