Song name
# A B C D E F G H I J K L M N O P Q R S T U V W X Y Z

Gary Moore - The Thrill Is Gone tab

(/) Slide Up  (\) Slide Down  (h) Hammer On  (p) Pull Off  (b) Bend
(r) Release


E|--13b15--13b15--11------|------11---------|-----8--8----8--11--13--|
B|--------------------13--|--13------13\----|--8---------------------|
G|------------------------|-----------------|------------------------|
D|------------------------|-----------------|------------------------|
A|------------------------|-----------------|------------------------|
E|------------------------|-----------------|------------------------|

E|--13b15--13--15------|-------------8------------------------|
B|-----------------15--|--11b13---------11--------------------|
G|---------------------|--------------------10b12--10--8------|
D|---------------------|----------------------------------10--|
A|---------------------|--------------------------------------|
E|---------------------|--------------------------------------|

E|-------------8-------------|------------------|
B|----------------11---------|---------------4--|
G|--10b12-------------10b12--|--8---------------|
D|---------------------------|-----10-----------|
A|---------------------------|------------------|
E|---------------------------|------------------|

E|-------------------------------|-------------------|--------------|
B|--6b8r6p4--6-----4/6--------4--|--6b8r6p4--6--6----|--4-----------|
G|--------------5----------------|-------------------|-----5--------|
D|-------------------------------|-------------------|--------------|
A|-------------------------------|-------------------|--------------|
E|-------------------------------|-------------------|--------------|

E|---------11--13--|--13b15--11--13------13b14r13p11--------------|
B|--11/13----------|-----------------13---------------13--13--11--|
G|-----------------|----------------------------------------------|
D|-----------------|----------------------------------------------|
A|-----------------|----------------------------------------------|
E|-----------------|----------------------------------------------|

E|--------13------13--|--------------------|--------------------------|
B|--------13--16------|--16b18--16p13------|--13--16--13-----------8--|
G|--------------------|----------------15--|----------------10b12-----|
D|--------------------|--------------------|--------------------------|
A|--------------------|--------------------|--------------------------|
E|--------------------|--------------------|--------------------------|

E|--8-----------------------------------------|----------8h11--11b13--|
B|-----11p8-------------------------8---------|----8h11---------------|
G|-----------10b12r10p8h10p8--8h10-----8------|-----------------------|
D|----------------------------------------10--|-----------------------|
A|--------------------------------------------|-----------------------|
E|--------------------------------------------|-----------------------|

E|--11b12--8h11p8---------8-----------------|
B|-----------------11b12--------------------|
G|---------------------------10--10--8------|
D|--------------------------------------10--|
A|------------------------------------------|
E|------------------------------------------|

E|--------------------------8---------------8---------8--------|
B|-----------------------8-----11p8---------8---------8--11p8--|
G|--10--8------8--10b12--------------10b12-----10b12-----------|
D|---------10--------------------------------------------------|
A|-------------------------------------------------------------|
E|-------------------------------------------------------------|

E|---------8-----------------------8---------------8--------|
B|---------8--------------------8-----11p8---------8--11p8--|
G|--10b12-----10--10--8--10b12--------------10b12-----------|
D|----------------------------------------------------------|
A|----------------------------------------------------------|
E|----------------------------------------------------------|

E|---------8---------------------------------------------------|
B|---------8--11p8---------8-----------------------------------|
G|--10b12-----------10b12-----10b12r10--8--10p8----------------|
D|-----------------------------------------------10--8---------|
A|------------------------------------------------------8------|
E|---------------------------------------------------------11--|

E|--------------------|
B|--------------------|
G|--------------------|
D|--------------------|
A|--------------------|
E|--8----11--8--------|
Tap to rate this tab
# A B C D E F G H I J K L M N O P Q R S T U V W X Y Z