Guitaretab - guitar tabs
Song name
# A B C D E F G H I J K L M N O P Q R S T U V W X Y Z

Gary Moore - Empty Rooms tab

Gary Moore  Empty Rooms Solo (long version)
By Luka87

Not so difficult solo by Gary Moore (the version played mostly live) - since i couldn't 
a this version on the internet, it took me a while to transcribe it from some guys 
it on youtube...(only one part unsure about...)
I hope u'll like it

feel free to make any complaints or suggestions


e-------------10--------------------------------------------------------------------------------|
B-13b15^^^13----10----8-6-----------------------------------------------------------------------|
G-------------------------7----5-7-------------------------------------------------------------|
D-----------------------------------5\3-----------------2-3-5--5\7--7b8---5---------------------|
A----------------------------------------5---------3--5--------------------------8-7-8---7-8-10-|
E------------------------------------------------5----------------------------------------------|

e----------------------------------------------------------------------------|
B---------------------------------------------------------13-10h13-----------|
G----------7-9-10--9h10p9-7---9-10-12b14^^^^12p10h12---------------10h12p10--|
D--------7-------------------------------------------------------------------|
A-8-10-----------------------------------------------------------------------|
E----------------------------------------------------------------------------|
[ Tab from: http://www.guitaretab.com/g/gary-moore/47612.html ]
e---------------1310h13p10-----10-12-13---10-12-13-15b17^^b18^^r15^^---------------|
B----------------------------13-----------------------------------------------------|
G-----910-------------------------------------------------------------------17--19-|
D-12--------------------------------------------------------------------------------|
A-----------------------------------------------------------------------------------|
E-----------------------------------------------------------------------------------|

e-----------------------------17-20-20b22^^20b22-20b22-20---17h18--17-----------------|
B-17-18--17h19p17----17-19-20-----------------------------------------20\(slide-away)-|
G-----------------19------------------------------------------------------------------|
D-------------------------------------------------------------------------------------|
A-------------------------------------------------------------------------------------|
E-------------------------------------------------------------------------------------|

 (not sure about this part-----------------------------------------------------------------|
e-----------------------------------------------------------------------------------------|
B---------15-16--15h16p15--13h15p13---------------13b15-13-11-10--------------------------|
G-15-17-----------------------------15-13-12---------------------12-10-9---9-10--13-10^^--|
D------------------------------------------------------------------------12---------------|
A-----------------------------------------------------------------------------------------|
E-----------------------------------------------------------------------------------------|

e----10-12h13p12^^--10-12-13-15h17^^15b17^^^--(fading out)----|
B-10----------------------------------------------------------|
G-------------------------------------------------------------|
D-------------------------------------------------------------|
A-------------------------------------------------------------|
E-------------------------------------------------------------|
Related for Empty Rooms tab