Song name
# A B C D E F G H I J K L M N O P Q R S T U V W X Y Z

Gary Moore - Wild Frontier tab

Please rate my tab and write me comments.

Tuning: Standard (E A D G)

p= Pull-off
h= Hammer-on
/= Slide up
\= Slide down


           |Intro:
G |--------|----------------|----------------|----------------|----------------|
D |--------|----------------|----------------|----------------|----------------|
A |----2/5-|----------------|2-----2-2-------|3-----3-3-------|2-----2-2--/5---|
E |--------|0-----0-0-------|----------------|----------------|----------------|

G |----------------|----------------|----------------|----------------|
D |----------------|----------------|----------------|----------------|
A |----------------|2-----2-2-----2-|0-----0-2-----2-|3-3-3-3-3-3-3-3-|
E |0-----0-0-------|----------------|----------------|----------------|


===================================================================================

1st Verse:
G |----------------|--------|----------------|--------|
D |----------------|--------|----------------|--------|
A |----------------|--------|3-------------3-|--------|
E |0-------------0-|3-------|----------------|0-------|

G |----------------|--------|--------|----------------|
D |----------------|--------|--------|----------------|
A |----------------|--------|3-------|--5-5---2--/5---|
E |0-------------0-|3-------|--------|----------------|

===================================================================================

1st Prechorus:
G |----------------|----------------|----------------|----------------|
D |----------------|----------------|----------------|----------------|
A |----------------|2-----2-2-------|3-----3-3-------|2-----2-2--/5---|
E |0-----0-0-------|----------------|----------------|----------------|

G |----------------|----------------|----------------|----------------|
D |----------------|----------------|----------------|----------------|
A |----------------|2-----2-2-----2-|0-----0-2-----2-|--3-3-3-3-------|
E |0-----0-0-------|----------------|----------------|----------------|

===================================================================================

1st Chorus:
G |----------------|----------------|----------------|----------------|
D |----------------|----------------|----------------|----------------|
A |3-----3-5-------|----------7---7-|3-----3-5-------|2-----2-3p2-3p2-|
E |----------------|0-----0-0---0---|----------------|----------------|

G |----------------|----------------|----------------|----------------|
D |----------------|----------------|----------------|----------------|
A |3-----3-5-------|----------7---7-|3-----3-2-------|0-----0-5-------|
E |----------------|0-----0-0---0---|----------------|----------------|

G |----------------|----------------|
D |----------------|----------------|
A |----------7---7-|----------------|
E |0-----0-0---0---|0---------------|

===================================================================================

2nd Verse:
G |--------------------------------|--------------------------------|
D |--------------------------------|--------------------------------|
A |--------------------------------|--------------------------------|
E |0---0-0-0---0-0-0---0-0-0---0-0-|3---3-3-3---3-3-3---3-3-3---3-3-|

G |--------------------------------|--------------------------------|
D |--------------------------------|--------------------------------|
A |3---3-3-3---3-3-3---3-3-3---3-3-|--------------------------------|
E |--------------------------------|0---0-0-0---0-0-0---0-0-0---0-0-|

G |--------------------------------|--------------------------------|
D |--------------------------------|--------------------------------|
A |--------------------------------|--------------------------------|
E |0---0-0-0---0-0-0---0-0-0---0-0-|3---3-3-3---3-3-3---3-3-3---3-3-|

G |--------------------------------|----------------|
D |--------------------------------|----------------|
A |3---3-3-3---3-3-3---3-3-3---3-3-|--5-5---2--/5---|
E |--------------------------------|----------------|

===================================================================================

2nd Prechorus: Play as you did in the 1st prechorus

===================================================================================

2nd Chorus
G |----------------|----------------|----------------|----------------|
D |----------------|----------------|----------------|----------------|
A |3-----3-5-------|----------7---7-|3-----3-5-------|2-----2-3p2-3p2-|
E |----------------|0-----0-0---0---|----------------|----------------|
                                                      ********
G |----------------|----------------|----------------|--------|
D |----------------|----------------|----------------|--------|
A |3-----3-5-------|----------7---7-|3-----3-5-------|2-----2-|
E |----------------|0-----0-0---0---|----------------|--------|

G |----------------|--------|
D |----------------|--------|       *= This bar is only 2/4 long.
A |3-------------2-|3-------|
E |----------------|--------|

===================================================================================

Slow part 1
G |----------------|--------|----------------|----------------|
D |----------------|--------|---------------/|9-7-------------|
A |----------------|----5---|3---------------|------5p3-------|
E |3-------------3-|0-------|--------------3-|----------------|

G |----------------|--------|----------------|----------------|----------------|
D |----------------|--------|----------------|----------------|----------------|
A |2-------------2-|----5---|3---------------|3-------------3-|----------------|
E |----------------|0-------|--------------3-|----------------|3-------------3-|

|----------------|----------------|--------|--------|--------|--------|--------|
|----------------|----------------|--------|--------|--------|--------|--------|
|----------------|5-------------5-|3-------|2-------|--------|0---2---|3---5---|
|0-------------0-|----------------|--------|--------|0-------|--------|--------|

G |--------|--------|
D |--------|--------|
A |--------|2---2/5-|
E |0-------|--------|

===================================================================================

Preverse:
G |----------------|----------------|----------------|----------------|
D |----------------|----------------|----------------|----------------|
A |----------------|2-----2-2-----2-|0-----0-2-----2-|3-3-3-3-3-3-3-3-|
E |0-----0-0-------|----------------|----------------|----------------|

===================================================================================

Guitar solo: Play as you did in the 1st verse

===================================================================================

3rd Prechorus:
G |----------------|----------------|----------------|----------------|
D |----------------|----------------|----------------|----------------|
A |----------------|2-----2-2-------|3-----3-3-------|2-----2-2--/5---|
E |0-----0-0-------|----------------|----------------|----------------|

G |----------------|----------------|----------------|----------------|
D |----------------|----------------|----------------|----------------|
A |----------------|2-----2-2-----2-|0-----0-2-----2-|3-3-3-3-3-3-3-3-|
E |0-----0-0-------|----------------|----------------|----------------|

G |----------------|
D |----------------|
A |3-3-3-3-3-3-3-3-|
E |----------------|

===================================================================================

Slow part 2:                                                              16th note
G |----------------|--------|--------|--------|----------------|--------|------|-|--------|
D |----------------|--------|--------|--------|----------------|--------|------V-|--------|
A |3-------5-----5-|--------|3---5---|--------|3-------5-----5-|7---5---|3-----2h|3-------|
E |----------------|0-------|--------|0-------|----------------|--------|--------|--------|

G |--------|9-9-9-9-7-7-7-7-----------------|
D |--------|----------------9-9-9-9-7-7-7-7-|
A |3-------|--------------------------------|
E |--------|--------------------------------|

===================================================================================

3rd Chorus
G |----------------|----------------|----------------|----------------|
D |----------------|----------------|----------------|----------------|
A |3-----3-5-------|----------7---7-|3-----3-5-------|2-----2-3p2-3p2-|
E |----------------|0-----0-0---0---|----------------|----------------|

G |----------------|----------------|----------------|----------------|
D |----------------|----------------|----------------|----------------|
A |3-----3-5-------|----------7---7-|3-----3-2-------|0-----0-5-------|
E |----------------|0-----0-0---0---|----------------|----------------|

===================================================================================

3rd Chorus repeated:
G | ----------------|----------------|----------------|----------------|
D |.----------------|----------------|----------------|----------------|
A |.3-----3-5-------|----------7---7-|3-----3-5-------|2-----2-3p2-3p2-|
E | ----------------|0-----0-0---0---|----------------|----------------|

G |----------------|----------------|----------------|---------------- |
D |----------------|----------------|----------------|----------------.|
A |3-----3-5-------|----------7---7-|3-----3-5-------|--------2---5---.|
E |----------------|0-----0-0---0---|----------------|0-----0--------- |

Repeat this until the song fade out.
Tap to rate this tab
 
# A B C D E F G H I J K L M N O P Q R S T U V W X Y Z