Song name
# A B C D E F G H I J K L M N O P Q R S T U V W X Y Z

Gary Moore - Out In The Fields tab

Gary Moore/Phil Lynott
Out in The Fields
Standard Tuning.

(intro)  3x

       D

e|---12b13vv--12-----10--------------------|
B|----------------13-----------------------|
G|-----------------------------------------|
D|-----------------------------------------|
A|-----------------------------------------|
E|-----------------------------------------|

       Bb

e|---12b13vv--12------10-------------------|
B|----------------13-----------------------|
G|-----------------------------------------|
D|-----------------------------------------|
A|-----------------------------------------|
E|-----------------------------------------|

      C                D

e|---12b13---12---15---10~~----------------|
B|-----------------------------------------|
G|-----------------------------------------|
D|-----------------------------------------|
A|-----------------------------------------|
E|-----------------------------------------|


(Conor_lfc8@hotmail.com)
Tap to rate this tab
# A B C D E F G H I J K L M N O P Q R S T U V W X Y Z