Song name
# A B C D E F G H I J K L M N O P Q R S T U V W X Y Z

Gary Moore - Alona tab

Help us improve GuitareTab! Take a short survey!
Band Name: Gary Moore
Song Name: Alona
Tabbed By: Terry Sims (Masterofdarknes)
Email: Floyd_Fan89@teenspot.com


          ~~        ~~         ~~    ~~
-------------------------------------------------|
-------------------------------------------------|
-------------------------------------------------|
----5--7--8---------8-----3--5-/7----------------|
-/5-----------5--6------3----------3--5----------|
-------------------------------------------------|

                 ~~      ~~
-------------------------------------------------|
-------------------------------------------------|
-------------------------------------------------|
------------1--3-/5-------5--5H7--7B9--7B9R7-----|
-3H5P3--\1---------------------------------------|
--------------------/6--5------------------------|

    ~~             ~~             ~~
-------------------------------------------------|
-------------------------------------------------|
---------5B7R5---3--2----------------------------|
-5--7--------------------5--3------5-------------|
-------------------------------5-----------------|
-------------------------------------------------|
                         ~~
-------------------------------------------------|
-------------------------------------------------|
-5B7R5--3--2-------------------------------------|
--------------5--3-------5-----------------------|
-------------------------------------------------|
-------------------------------------------------|

~~  =  Vibrato
Related for Alona tab