Song name
# A B C D E F G H I J K L M N O P Q R S T U V W X Y Z

Gary Moore - Rectify tab

Tabbed by: ctb (Clifford Boulton)
Email: ctb1989@hotmail.com

[Updated: Monday, 31st October]

Tuning: Standard

Intro
e|----------------x-x-x-x------------------------x-x-x-x-x-x-x-x------------x-x-x-x-|
B|----------------x-x-x-x------------------------x-x-x-x-x-x-x-x------------x-x-x-x-|
G|----------------x-x-x-x------------------------x-x-x-x-x-x-x-x------------x-x-x-x-|
D|----------------------------------------------------------------------------------|
A|--------------5---------------5-------------5---------------------------5---------|
E|-12\--0-5h6h7-----------5h6h7---7~--0-5h6h7---------------------0-5h6h7-----------|

e|----------------------------|
B|----------------------------|
G|----------------------------|
D|----------------------------|
A|-------5--------------5-----|
E|-5h6h7---7~---0-5-6-7---12\-| Repeat.

Verse - same riff/rhythm as intro but mostly muted strings.

Chorus
e|--------------------------------------|
B|--------------------------------------|
G|--------------------------------------|
D|-2p0----------------2p0-----------4-3-|
A|-----2p1p0---2-5-7------2p1p0-----2-1-|
E|-----------3h0-3-5------------3h0-----|
Tap to rate this tab
# A B C D E F G H I J K L M N O P Q R S T U V W X Y Z