Song name
# A B C D E F G H I J K L M N O P Q R S T U V W X Y Z

Gary Moore - Murder In The Skies tab

Hi, sorry about the timing for this tab, but I can't really read tab timing very well, 
if you know the song then you should be able to play it at the right speed anyway.

Intro:

---------------------------------------------------|
---------------------------------------------------|
---------------------------------------------------|
---2---2---4---5---4---4---5---7---5---4---5---2---|
---2---2---4---5---4---4---5---7---5---4---5---2---|
---0---0---2---3---2---2---3---5---3---2---3---0---|

Main Riff:

-----------------------------------------------------------|
-----------------------------------------------------------|
-----------------------------------------------------------|
---2---2---4---5---5---5---4---4---5---7---7---------------|
---2---2---4---5---5---5---4---4---5---7---7---------------|
---0---0---2---3---3---3---2---2---3---5---5---0-5-0-3-0---|

I'v tried to get the whole song but this is all I could find out.If anyone works out the 
can you please send it to me at pfrowe@btinternet.com

Thanks
Tap to rate this tab
# A B C D E F G H I J K L M N O P Q R S T U V W X Y Z