Song name
# A B C D E F G H I J K L M N O P Q R S T U V W X Y Z

Gary Numan - Only A Downstat tab

Help us improve GuitareTab! Take a short survey!
Artist: Gary Numan
Song  : Only A Downstat
Album : Replicas
Tuning: Standard
 
I saw Gary Numan live on the 'Replicas' 2008 tour, this is how the song was played.

Main Riff
e|--------------------------------------------|
b|--------------------------------------------|
g|--------------------------------------------|
d|-7---4-5----7---4-5----7---4-5----5-4--7----|
a|-7---4-5----7---4-5----7---4-5----5-4--5----|
e|-5---2-3----5---2-3----5---2-3----3-2--5----|

Chorus
e|--------------------------------------------|
b|--------------------------------------------|
g|--------------------------------------------|
d|-9------7-------7---4-5----7---4-5----------|
a|-9------7-------7---4-5----7---4-5----------|
e|-7------5-------5---2-3----5---2-3----------|
Related for Only A Downstat tab