Song name
# A B C D E F G H I J K L M N O P Q R S T U V W X Y Z

Gary Numan - Everything Comes Down To This tab

Verse Guitars
E|-------------|-------------|-------------|-----------------|
B|-------------|-------------|-------------|-----------------|
G|-------------|-------------|-------------|-----------------|
D|-0-3-2-0-2-0-|-0-3-2-0-2-0-|-0-3-2-0-2-0-|-0-3-2-0-2-0-4/5-|
A|-0-3-2-0-2-0-|-0-3-2-0-2-0-|-0-3-2-0-2-0-|-0-3-2-0-2-0-2/3-|
E|-------------|-------------|-------------|-----------------|

Verse Bass
G|-------------|-------------|-------------|-----------------|
D|-0-3-2-0-2-0-|-0-3-2-0-2-0-|-0-3-2-0-2-0-|-0-3-2-0-2-0-----|
A|-------------|-------------|-------------|-------------2-3-|
E|-------------|-------------|-------------|-----------------|

Chorus Guitars
E|-------------|-------------|-------------|-----------------|
B|-------------|-------------|-------------|-----------------|
G|-------------|-------------|-------------|-----------------|
D|-7-----------|-5-----------|-------------|-----------------|
A|-5-----------|-3-----------|-5-----------|-3---------------|
E|-------------|-------------|-3-----------|-1---------------|
Chorus Bass
G|-------------|-------------|-------------|-----------------|
D|-------------|-------------|-------------|-----------------|
A|-5-----------|-3-----------|-------------|-----------------|
E|-------------|-------------|-3-----------|-1---------------|

That's the whole song.
Tap to rate this tab
 
# A B C D E F G H I J K L M N O P Q R S T U V W X Y Z