Song name
# A B C D E F G H I J K L M N O P Q R S T U V W X Y Z

Gary Numan - When The Machines Rock tab

    G
e|------3-------3-------3-----5-3----|
B|----3-------3-------3--------------|
G|:-0-------0-------0-------0-------:|
D|:---------------------------------:|
A|-----------------------------------|
E|-----------------------------------|

    C                                             F
e|------8-----6-------5-|------8-----6-------5--|----------6-5-------|
B|----------8-----6-----|--8-------8-----6------|-6------------8-6---|
G|--5-------------------|:---------------------:|--------------------|
D|----------------------|:---------------------:|--------------------|
A|----------------------|-----------------------|--------------------|
E|----------------------|-----------------------|--------------------|x2

    G
e|------3-------3-------3-----5-3----|
B|----3-------3-------3--------------|
G|:-0-------0-------0-------0-------:|
D|:---------------------------------:|
A|-----------------------------------|
E|-----------------------------------|

    C                                             F
e|------8-----6-------5-|------8-----6-------5--|----------6-5-------|
B|----------8-----6-----|--8-------8-----6------|-6------------8-6---|
G|--5-------------------|:---------------------:|--------------------|
D|----------------------|:---------------------:|--------------------|
A|----------------------|-----------------------|--------------------|
E|----------------------|-----------------------|--------------------|x2

    G                       Dm     C
e|------3-----5-3-------3--------8-----6----|
B|----3---------------3-------10-----8---8--|
G|:-0-------0-------0-------7------5-------:|
D|:----------------------------------------:|
A|------------------------------------------|
E|------------------------------------------|x4

   F
e|-5---3---|
B|---------|
G|---------|
D|---------|
A|---------|
E|---------|

    C                                             F
e|------8-----6-------5-|------8-----6-------5--|----------6-5-------|
B|----------8-----6-----|--8-------8-----6------|-6------------8-6---|
G|--5-------------------|:---------------------:|--------------------|
D|----------------------|:---------------------:|--------------------|
A|----------------------|-----------------------|--------------------|
E|----------------------|-----------------------|--------------------|x2

    G                       Dm     C
e|------3-----5-3-------3--------8-----6----|
B|----3---------------3-------10-----8---8--|
G|:-0-------0-------0-------7------5-------:|
D|:----------------------------------------:|
A|------------------------------------------|
E|------------------------------------------|x4

   F
e|-5---3---|
B|---------|
G|---------|
D|---------|
A|---------|
E|---------|

    C                    
e|------8-----6-------5-|-------------------|
B|----------8-----6-----|-8-----------------|
G|--5-------------------|-------------------|
D|----------------------|-------------------|
A|----------------------|-------------------|
E|----------------------|-------------------|
Tap to rate this tab
 
# A B C D E F G H I J K L M N O P Q R S T U V W X Y Z