Song name
# A B C D E F G H I J K L M N O P Q R S T U V W X Y Z

Gary Valenciano - May Bukas Pa tab

sa may chorus lang to tsaka kinapa ko lang rin:
pki rate and comment!
kung may tanong kau email me:emanjohn@ymail.com
c:

-9--7--5-----5--7/9--7--5-----5----5--7/9--7--5------5------5--8/10--9--5-7-5--|
--------7--9-------------7--9--7--9--------------7--9--7--9--------------------|
-------------------------------------------------------------------------------|
-------------------------------------------------------------------------------|
-------------------------------------------------------------------------------|
-------------------------------------------------------------------------------|

or

-------------------------------------------------------------------------------|
-------------------------------------------------------------------------------|
-9--7--5-----5--7/9--7--5-----5----5--7/9--7--5------5------5--8/10--9--5-7-5--|
--------7--9-------------7--9--7--9--------------7--9--7--9--------------------|
-------------------------------------------------------------------------------|
-------------------------------------------------------------------------------|
Tap to rate this tab
 
# A B C D E F G H I J K L M N O P Q R S T U V W X Y Z