Guitaretab - guitar tabs
Song name
# A B C D E F G H I J K L M N O P Q R S T U V W X Y Z

Gary Young - Plantman tab

Highlighted       Show chord diagrams
One of the greatest songs ever written
Plantman by Gary Young

A        D              G           C
Plantman knows that the plants will grow
A        D              G           C
Plantman knows that the plants will grow
A        D              G           C
Plantman knows that the plants will grow
A        D              G           C
Plantman knows


*E Accents:
   Plant-Man....
e|---------------------------------------------|
B|---------------------------------------------|
G|---------------------------------------------|
D|-2-----2-------------------------------------|
A|-2-----2-------------------------------------|
E|-0-----0-------------------------------------|

E*
Plantman
E*
Plantman
E*
Plantman
E*
Plantman

A        D               G           C
Plantman knows where the plants will grow
A        D              G           C
Plantman knows that the plants will grow
A           D             G           C
Plants dont know when the plants will grow
A        D            G           C
Plantman knows if the plants will grow

E*
Plantman
E*
Plantman
E*
Eh Ow
E*
Plantman
[ Tab from: http://www.guitaretab.com/g/gary-young/129850.html ]
A        D            G           C
Plantman knows if the plants will grow
A        D               G           C
Plantman knows where the plants will grow
        A           D           G        C
And the plants will know if the Plantman knows
A           D           G        C
Plants will know if the Plantman knows
         E*
He's the Plantman
         E*
He's the Plantman
         E*
He's the Plantman
E*
Shirt

(Instrumental Break)
Strum: A  D  G  C

Guitar Solo:
This is my favorite guitar solo ever.  It's hard to hear it but you should be safe if 
play something along the lines of this.  It sounds best with an electric guitar with no 
at all.
e|-11----11-11-11----11-11-11----11-11-11-11------------------|
B|-11----11-11-11----11-11-11----11-11-11-11------------------|
G|-11----11-11-11----11-11-11----11-11-11-11------------------|
D|-11----11-11-11----11-11-11----11-11-11-11------------------|
A|------------------------------------------------------------|
E|------------------------------------------------------------|

E*
Plantman
E*
Plantman
E*
Plant man
E*
Plantman

A        D               G           C
Plantman knows where the plants will grow
A        D            G           C
Plantman knows if the plants will grow
A        D              G           C
Plantman knows when the plants will grow
         A        D         G        C
He's the plantman he is the plantman
×
Plantman