Song name
# A B C D E F G H I J K L M N O P Q R S T U V W X Y Z

Gas Up Yr Hearse - One Hundred Years From Now Ill Be Crawling From My Tomb tab

-----------------------------------------------------------------------------
one Hundred Years From Now I'll Be Crawling From My Tomb - Gas Up Yr Hearse!
-------------------------------------------------------------------------------
Tabbed by: Gmemberkills
E-mail: Drop D

Tuning:

e|---------------------------------------------------------------------------|
B|---------------------------------------------------------------------------|
G|---------------------------------------------------------------------------|
D|0----1----5--0---------2--1-0-1--------------------------------------------|
A|0-ph-1-s--5--0---------2--1-0-1------x2------------------------------------|
D|0----1----5--0---------2--1-0-1--------------------------------------------|

e|---------------------------------------------------------------------------|
B|---------------------------------------------------------------------------|
G|---------------------------------9--8--7--9--------------------------------|
D|---2--1-0-1----------------------x--x--x--x--------------------------------|
A|---2--1-0-1----------------------7--6--5--7--------------------------------|
D|---2--1-0-1----------------------------------------------------------------|
Strum this fast, then break into

e|---------------------------------------------------------------------------|
B|--------4------------------------------------------------------------------|
G|--------7------------------------------------------------------------------|
D|--000----------------------------------------------------------------------|
A|pm000----------------------------------------------------------------------|
D|--000----------------------------------------------------------------------|

Then for the end use pretty much open pm chugs along with the 4 an 7 in rhythm to the song
************************************

| /   slide up
| \   slide down
| h   hammer-on
| p   pull-off
| ~   vibrato
| +   harmonic
| x   Mute note
| b   Bend
| pb  Pre-bend
| br  Bend release
| pbr Pre-bend release
| brb Bend release bend
Tap to rate this tab
 
# A B C D E F G H I J K L M N O P Q R S T U V W X Y Z