Song name
# A B C D E F G H I J K L M N O P Q R S T U V W X Y Z

Gash - Townie tab

Gash
'Townie'
Compunktion: Volume 1

Tabbed by Ozzyomega

Intro:

  'You're a self-centered egotistical wanker...'
e---------------------------------------------------------------------|
G---------------------------------------------------------------------|
D--5-----7-----9-----5-----7-----9-----5------7-----9---5---7---9--5--|
A--3-----5-----7-----3-----5-----7-----3------5-----7---3---5---7--3--|
E---------------------------------------------------------------------|

Verse:

e------------------|
B------------------|
G------------------|
D--55-77---999999--|
A--33--55--777777--|   (x4)
E------------------|

Chorus:

e--------------------------------------------------|
B--------------------------------------------------|
G--------------------------------------------------|
D--555555--777777--999999--555555--777777--999999--|
A--333333--555555--777777--333333--555555--777777--|
E--------------------------------------------------|

In this order:-
(intro)
(verse)
(chorus)
(intro)
(chorus)

Outro:

e----------------------|
B----------------------|
G----------------------|
D--5---7---9---7--5----|
A--3---5---7---5--3----|
E----------------------|
Tap to rate this tab
# A B C D E F G H I J K L M N O P Q R S T U V W X Y Z