Song name
# A B C D E F G H I J K L M N O P Q R S T U V W X Y Z

Gaslight Anthem - Ida Called You Woody Joe tab

-------------------------------------------------------------------------------
			     ida called you wood joe- gasliht anthem
-------------------------------------------------------------------------------
Tabbed by:michael d
Email: giraffe_1234@hotmail.com

Tuning: standerd

e|---------------------------------------------------------------------------|
B|---------------------------------------------------------------------------|
G|---------------------------------------------------------------------------|
D|---------------------------------------------------------------------------|
A|888888888888888888888888-55555555555-888888888888-555555555555-------------|
E|666666666666666666666666-33333333333-666666666666-333333333333-------------|

e|---------------------------------------------------------------------------|
B|---------------------------------------------------------------------------|
G|777777777-777777777--------------------------------------------------------|
D|888888888-777777777--------------------------------------------------------|
A|666666666-888888888--------------------------------------------------------|
E|---------------------------------------------------------------------------|

e|---------------------------------------------------------------------------|
B|---------------------------------------------------------------------------|
G|---------------------------------------------------------------------------|
D|---------------------------------------------------------------------------|
A|888888888888-55555555555-888888888888-555555555555-------------------------|
E|666666666666-33333333333-666666666666-333333333333-------------------------|

e|---------------------------------------------------------------------------|
B|---------------------------------------------------------------------------|
G|777777777-777777777--------------------------------------------------------|
D|888888888-777777777--------------------------------------------------------|
A|666666666-888888888--------------------------------------------------------|
E|---------------------------------------------------------------------------|

e|---------------------------------------------------------------------------|
B|11----11-------------------------------------------------------------------|
G|12-10-12-10-8--------------------------------------------------------------|
D|12-10-12-10-8--------------------------------------------------------------|
A|10-8--10-8--6--------------------------------------------------------------|
E|---------------------------------------------------------------------------|

e|---------------------------------------------------------------------------|
B|---------------------------------------------------------------------------|
G|---------------------------------------------------------------------------|
D|----------888888888-X4-----------------------------------------------------|
A|888888888-666666666--------------------------------------------------------|
E|666666666------------------------------------------------------------------|

e|---------------------------------------------------------------------------|
B|666666666------------------------------------------------------------------|
G|777777777-888888888-555555555----------------------------------------------|
D|777777777-888888888-333333333----------------------------------------------|
A|555555555-666666666--------------------------------------------------------|
E|---------------------------------------------------------------------------|
then do everything again (X2) 

e|---------------------------------------------------------------------------|
B|---------------------------------------------------------------------------|
G|---------------------------------------------------------------------------|
D|---------------------------------------------------------------------------|
A|8--------------------------------------------------------------------------|
E|6--X50---------------------------------------------------------------------|

e|---------------------------------------------------------------------------|
B|---------------------------------------------------------------------------|
G|---------------------------------------------------------------------------|
D|---------------------------------------------------------------------------|
A|7-7-8-5555-----------------------------------------------------------------|
E|5-5-6-3333-----------------------------------------------------------------|

e|---------------------------------------------------------------------------|
B|---------------------------------------------------------------------------|
G|---------------------------------------------------------------------------|
D|----------888888888-X4-----------------------------------------------------|
A|888888888-666666666--------------------------------------------------------|
E|666666666------------------------------------------------------------------|

e|---------------------------------------------------------------------------|
B|666666666------------------------------------------------------------------|
G|777777777-888888888-555555555----------------------------------------------|
D|777777777-888888888-333333333--X2------------------------------------------|
A|555555555-666666666-----------------8--------------------------------------|
E|------------------------------------6--------------------------------------|

************************************

| /   slide up
| \   slide down
| h   hammer-on
| p   pull-off
| ~   vibrato
| +   harmonic
| x   Mute note
| b   Bend
| pb  Pre-bend
| br  Bend release
| pbr Pre-bend release
| brb Bend release bend

************************************
Tap to rate this tab
 
# A B C D E F G H I J K L M N O P Q R S T U V W X Y Z