Song name
# A B C D E F G H I J K L M N O P Q R S T U V W X Y Z

Gaslight Anthem - 45 tab

Drop D Tuning

Intro
Lead 1
e-----------------------------|
b-----------------------------|
g-----3-----3-------3-----3---|
d---1-----1---1---1-----1---1-| repeat
a-3-----1-------3-----1-------|
d-----------------------------|

Rhythm
e------------------|
b------------------|
g-5~---------------|
d-5~--8~--6~--8~---|
a-3~--8~--6~--8~---|
d-----8~--6~--8~---|


Lead 2
e-6~----------------------------------|
b-----8-6~--6-8-6---------6~--6-8-6---|
g-----------------8-8~--8-----------8-|
d-------------------------------------|
a-------------------------------------|
d-------------------------------------|

Verse
e-----------------------------------|
b-----------------------------------|
g-777/8-88-888-888-333/5-55-555-555-|
d-777/8-88-888-888-333/5-55-555-555-|
a-555/6-66-666-666-111/3-33-333-333-|
d-----------------------------------|

Lead 2
e----------8-------10-------8-------|
b---11p8-------8--------8-------8---|
g-8------8---8---8----8---8---8---8-|
d-----------------------------------|
a-----------------------------------|
d-----------------------------------|

Pre Chorus
Rhythm
e-------------|
b-------------|
g-5-----------|
d-5-6~--666-8-|
a-3-6~--666-8-|
d---6~--666-8-|

Lead
e--------------|
b--------------|
g-8~--7h8h10~--|
d--------------|
a--------------|
d--------------|

Chorus  (Lead plays some spam in the background.  Too lazy to tab it at the moment)
e-----------------------------|
b-----------------------------|
g-555555---------------333333-|   2x
d-555555-666666-111111-333333-|
a-333333-666666-111111-111111-|
d--------666666-111111--------|

e-----------------------------|
b-----------------------------|
g--------333333-555555--------|
d-111111-333333-555555-666666-|  2x
a-111111-111111-333333-666666-|
d-111111---------------666666-|

Intro
Verse
Pre-Chorus
Chorus

Solo
Rhythm
e-------------------------------------|
b-------------------------------------|
g-55555555----------------------------|
d-55555555-55555555-66666666-88888888-|
a-33333333-55555555-66666666-88888888-|
d----------55555555-66666666-88888888-|

Lead
e----------------------------------------------------------------------------|
b----------------------------------------------------------------------------|
g-888888-10/12-121212121212-101010-888-777777-5/777777-7/8/7/5-55-3/5-555555-|
d-xxxxxx--x/-x--x-x-x-x-x-x--x-x-x-xxx-xxxxxx-x/xxxxxx-x/x/x/x-xx-x/x-xxxxxx-|
a-666666--8/10-101010101010--8-8-8-666-555555-3/555555-5/6/5/3-33-1/3-333333-|
d----------------------------------------------------------------------------|

e-----------------------------------------|
b-----------------------------------------|
g-7777-8888-10101010-12121212-13131313-12-|
d-xxxx-xxxx--x-x-x-x--x-x-x-x--x-x-x-x--x-|
a-5555-6666--8-8-8-8-10101010-11111111-10-|
d-----------------------------------------|

e-88888888-10101010-11111111-1313131313131313-11111111-1010101010101010--|
b------------------------------------------------------------------------|
g------------------------------------------------------------------------|
d------------------------------------------------------------------------|
a------------------------------------------------------------------------|
d------------------------------------------------------------------------|

e-15151515-18181818-16161616-15151515-13131313-18181818-20202020-18181818-20br-20~--|
b-----------------------------------------------------------------------------------|
g-----------------------------------------------------------------------------------|
d-----------------------------------------------------------------------------------|
a-----------------------------------------------------------------------------------|
d-----------------------------------------------------------------------------------|

There's a lead at the end but it's early in the morning.  I'll tab it later on.
Tap to rate this tab
# A B C D E F G H I J K L M N O P Q R S T U V W X Y Z