Song name
# A B C D E F G H I J K L M N O P Q R S T U V W X Y Z

Gaslight Anthem - Biloxi Parish tab

Biloxi Parish
Gaslight Anthem
Handwritten


     This is my first tab so there will be mistakes.

Lead Guitar: Alex Rosamilia's part

Intro:
E|--------------------------------------------------------------------------------------|
B|---15v---13v---11---11---11---11------------------------------------------------------|
G|---------------------------------12---12---10---10------------------------------------|
D|-----------------------------------------------------12---12---10---10----------------|
A|-------------------------------------------------------------------------13---13------|
E|--------------------------------------------------------------------------------------|



E|--------------------------------------------------------------------------------------|
B|---15v---13v---11---11---11---11------------------------------------------------------|
G|---------------------------------12---12---10---10------------------------------------|
D|-----------------------------------------------------12---12---10---10----------------|
A|-------------------------------------------------------------------------13---13------|
E|--------------------------------------------------------------------------------------|

     "I've been fumbling with your heart strings..."

Verse 1:
  "Try it on for size, my darling..."
 PM...............................................
E|-------------------------------------------------|
B|-------------------------------------------------|
G|----------------------------------------------10-| x4
D|----------------------------10----12----10-------|
A|-13-13-13-13-13-13-13-13-13----13----13----13----|
E|-------------------------------------------------|

Pre-Chorus
  "And I'll be with you..."
E|-----------------------------------------------------------------------------------|
B|-----------------------------------------------------------------------------------|
G|-----------------------------------------------------------------------------------|
D|---12---12---12---12---12---10---10---10---10-------------10--------10---12---10---|
A|------------------------------------------------13---13--------13------------------|
E|-----------------------------------------------------------------------------------|



E|--------------------------------------------------------------------------------------|
B|---15v---13v---11---11---11---11------------------------------------------------------|
G|---------------------------------12---12---10---10------------------------------------|
D|-----------------------------------------------------12---12---10---10----------------|
A|-------------------------------------------------------------------------13---13------|
E|--------------------------------------------------------------------------------------|


Verse 2:
 PM...............................................
E|-------------------------------------------------|
B|-------------------------------------------------|
G|----------------------------------------------10-|
D|----------------------------10----12----10-------| x6
A|-13-13-13-13-13-13-13-13-13----13----13----13----|
E|-------------------------------------------------|


Pre-Chorus:
  "But until then..."
E|-----------------------------------------------------------------------------------|
B|-----------------------------------------------------------------------------------|
G|-----------------------------------------------------------------------------------|
D|---12---12---12---12---12---10---10---10---10-------------10--------10---12---10---|
A|------------------------------------------------13---13--------13------------------|
E|-----------------------------------------------------------------------------------|



E|-----------------------------------------------------------------------------------|
B|-----------------------------------------------------------------------------------|
G|-----------------------------------------------------------------------------------| x2
D|---12---12---12---12---12---10---10---10---10-------------10--------10---12---10---|
A|------------------------------------------------13---13--------13------------------|
E|-----------------------------------------------------------------------------------|


Chorus:
E|-----------------------------------------------------------------------------------|
B|-----------------------------------------------------------------------------------|
G|-------------14---12-------------14---12-------------14---12-----------------------|
D|--------12------------------12------------------12-------------12---13---12--------|
A|---13------------------13------------------13---------------------------------15---|
E|-----------------------------------------------------------------------------------|



E|-----------------------------------------------------------------------------------|
B|-----------------------------------------------------------------------------------|
G|-------------14---12-------------14---12-------------14---12-----------------------|
D|--------12------------------12------------------12-------------12---13---12--------|
A|---13------------------13------------------13---------------------------------14---|
E|-----------------------------------------------------------------------------------|



E|-----------------------------------------------------------------------------------|
B|-----------------------------------------------------------------------------------|
G|-------------14---12-------------14---12-------------14---12-----------------------|
D|--------12------------------12------------------12-------------12---13---12--------|
A|---13------------------13------------------13---------------------------------15---|
E|-----------------------------------------------------------------------------------|



E|-----------------------------------------------------------------------------------|
B|-----------------------------------------------------------------------------------|
G|-------------14---12-------------14---12-------------14---12-----------------------|
D|--------12------------------12------------------12-------------12---13---12--------|
A|---13------------------13------------------13---------------------------------15---|
E|-----------------------------------------------------------------------------------|


Solo:
E|-------------------------------------------------------------|
B|-------------------------------------------------------------|
G|-12-12-12-12-12-------------------------------12----12-15-12-|
D|----------------15-12-15-12-------12-15-12-15----15----------|
A|----------------------------15-15----------------------------|
E|-------------------------------------------------------------|



E|-------------------------------------------------------------------|
B|-13-13-13-11----11-13-13-13-11----11-15-15-15-13-11-11-13-13-13-13-|
G|-------------12----------------12----------------------------------|
D|-------------------------------------------------------------------|
A|-------------------------------------------------------------------|
E|-------------------------------------------------------------------|



E|---------------------------------------------------|
B|-16-16-16-16-18-16-13-16-16-18-20-22--20-18-16-18--|
G|---------------------------------------------------|
D|---------------------------------------------------|
A|---------------------------------------------------|
E|---------------------------------------------------|



E|----------18-18-18-15----15-18-18-18-15----15-20-20-20-18-20-20-18-20-20-22--|b
B|-16-18-20-------------18----------------18-----------------------------------|
G|-----------------------------------------------------------------------------|
D|-----------------------------------------------------------------------------|
A|-----------------------------------------------------------------------------|
E|-----------------------------------------------------------------------------|

"And all of our heroes..."

Chorus:
 "Who else can take..."
E|-------------------------------------------------|
B|-------------------------------------------------|
G|-------14-12-------14-12-------14-12-------------|
D|----12----------12----------12-------12-13-12----|
A|-13----------13----------13-------------------15-|
E|-------------------------------------------------|



E|-------------------------------------------------|
B|-------------------------------------------------|
G|-------14-12-------14-12-------14-12-------------|
D|----12----------12----------12-------12-13-12----|
A|-13----------13----------13-------------------15-|
E|-------------------------------------------------|



E|-------------------------------------------------|
B|-------------------------------------------------|
G|-------14-12-------14-12-------14-12-------------|
D|----12----------12----------12-------12-13-12----|
A|-13----------13----------13-------------------15-|
E|-------------------------------------------------|



E|-------------------------------------------------|
B|-------------------------------------------------|
G|-------14-12-------14-12-------14-12-------------|
D|----12----------12----------12-------12-13-12----|
A|-13----------13----------13-------------------15-|
E|-------------------------------------------------|


  "Seen you hangin' around..."
E|------------------------------------------------------------------------------------------------|
B|------------------------------------------------------------------------------------------------|
G|-15-15-15-15-15-15-15-15-17-17-17-17-17-17-17-17-15-15-15-15-15-15-15-15-14-14-14-14-14-14-14-14|
D|------------------------------------------------------------------------------------------------|
A|------------------------------------------------------------------------------------------------|
E|------------------------------------------------------------------------------------------------|



E|--------------------------------------|
B|--------------------------------------|
G|-----15\-----15\-----12\-----12\------|
D|-----15\-----15\-----12\-----12\------|
A|-----13\-----13\-----10\-----10\------|
E|--------------------------------------|

That's all I got. Thanks!
Tap to rate this tab
# A B C D E F G H I J K L M N O P Q R S T U V W X Y Z