Song name
# A B C D E F G H I J K L M N O P Q R S T U V W X Y Z

Gasolin - Stakkels Jim tab

Tabs Delivered By: guitargangsta12

Artist: Gasolin
Song: Stakkels Jim (English - Poor Jim)

~ - vibrato
^ - bend 
\ - slide up
 
Tuning: Standard

e|---------------------------------------\/
B|--------------------12~----------------\/
G|-----12~--11~--12~-------14~--12~--14~-\/
D|12~------------------------------------\/
A|---------------------------------------\/
E|---------------------------------------\/

e|----------------------------------\/
B|---------------------15~--15\17~--\/
G|-14^--12~--12~--15~---------------\/
D|----------------------------------\/
A|----------------------------------\/
E|----------------------------------\/

e|-------------------------------------\/
B|--17~--15~--15~--12~-----------------\/
G|----------------------12~--14~--12~--\/
D|-------------------------------------\/
A|-------------------------------------\/
E|-------------------------------------\/

e|-------------------------------------|
B|-------------------------------------|
G|-14~--14^--12~-----------------------|
D|----------------12~--14~--12~---17~--|
A|-------------------------------------|
E|-------------------------------------|
Tap to rate this tab
 
# A B C D E F G H I J K L M N O P Q R S T U V W X Y Z