Song name
# A B C D E F G H I J K L M N O P Q R S T U V W X Y Z

Gasoline Heart - Never Been Worse tab

Couldn't find this on the internet anywhere so I figured it out to the best of my 
ability. this is my first tab, be gentle. The chord shapes are Am, C, Fmaj9 and G.

the beginning is just an Am, this is the rest after that. Just listen and feel around 
for the right picking pattern.

Have fun and let me know if it needs changes


CHORDS USED:

   Am    Fmaj9    C      G
E|---------x----------------|
B|--1------1------1------1--|
G|--2------0----------------|
D|--2------3------2---------|
A|----------------3------2--|
E|---------x------x------3--|

APPROXIMATE PICKING:

       Am         Fmaj9        C           G
E|--------------------------------------------------|
B|--------1-----------1-----------1-----------0--1--|
G|-----------0-----0--------------------------------|
D|-----2--------3--------0-----2-----0--------------|
A|--0-----------------------3--------------2--------|
E|--------------------------------------3-----------|



http://www.gasolineheart.com/
Tap to rate this tab
 
# A B C D E F G H I J K L M N O P Q R S T U V W X Y Z