Song name
# A B C D E F G H I J K L M N O P Q R S T U V W X Y Z

Gaspar Sanz - Sesquialtera tab

Sesquialtera - Gaspar Sanz (1640-1710)

Here's a nice little one by Sanz. You might want to shift some notes to lower
frets if that makes it sound nicer. Otherwise, bar the notes if it helps and
enjoy. The midi should clear up all questions. 
                          
Tabbed September 2002
Standard Tuning

 Q=162
 Time= 12/8

|-6-3-6-5---5-------------|-------------------------|-3-0-3-------6-3-6-5---5--|
|---------6---8---8-6---6-|-4-3-4-------3---3-1---1-|-------6---6---------6----|
|---------------8-----7---|-------2---2---------2---|-3-------2----------------|
|-------------------------|-5-------3-----3---------|-------0------------------|
|-------5-----6-----5-----|-3-----------1-----0-----|-------------------5------|
|-3-----------------------|-------------------------|-3-----------3------------|

|-------------------------|-------------------------|-------3---3-------------|
|-8---8-6---6-4-3-4-------|-3---3-1---1-3---3-1---1-|-------------6---6-4---4-|
|---8-----7---------2---2-|---------2-----2---------|-3-0-3---3-----2---------|
|-------------5-------3---|---3-----------------0---|-------------0-------5---|
|-6-----5-----3-----------|-1-----0-----------------|-------------------3-----|
|-------------------------|-------------2-----------|-3-----------------------|

|-------------------10----10-|--------6---6-------------|
|-1---1----------------------|-13---13------8---8-6---6-|
|-------3---3-2---2----10----|----9-----7-----5-----4---|
|---3-----2-----3----8-------|-10-----5-----------------|
|-0--------------------------|--------------7-----5-----|
|-------3-----1--------------|--------------------------|

|-------------------3---3-|-6-3-6-5---5-10----10--------|
|-5---5-3---3-1---1-------|---------6------------13---13|
|---5-----3-----------3---|-0--------------10-------9---|
|---------------3---------|--------------8-------10-----|
|-3-----1-----0-----------|-------5---------------------|
|-------------------3-----|-----------------------------|

|-6---6-5---5-------------|-------------------------|
|-------------8---8-6---6-|-4---4-------3---3-1---1-|
|---7-----7-----5-----3---|-------2---2---------2---|
|-5-----------------------|---5-----3-----3---------|
|-------8-----6-----5-----|-3-----------1-----0-----|
|-------------------------|-------------------------|

|-3-0-3-------6-3-6-5---5-|-------------------------|
|-------6---6---------6---|-8---8-6---6-4-3-4-------|
|-3-------2---0-----------|---8-----7---------2---2-|
|-------0-----------------|-------------5-------3---|
|-------------------5-----|-6-----5-----3-----------|
|-3-----------------------|-------------------------|

|-------------10----10--------|-------------------------|
|-3---3-1---1----------13---13|-8---8-6---6-4-3-4-------|
|---------2------10-------9---|---8-----7---------2---2-|
|---3----------8-------10-----|-------------5-------3---|
|-1-----0---------------------|-6-----5-----3-----------|
|-----------------------------|-------------------------|

                                                        
|-------------6-3-6-5---5-|-------------------------|---------------------*|
|-3---3-1---1---------6---|-8---8-6---6-4-3-4-------|-3--------(3)-(3)----*|
|---------2---0-----------|---5-----3---------2---2-|-3--------(3)-(3)----*|
|---3---------------------|---------------------3---|---------------------*|
|-1-----0-----------5-----|-6-----5-----3-----------|-1--------(1)-(1)----*|
|-------------------------|-------------------------|---------------------*|
Tap to rate this tab
 
# A B C D E F G H I J K L M N O P Q R S T U V W X Y Z