Song name
# A B C D E F G H I J K L M N O P Q R S T U V W X Y Z

Gatans Lag - Min Stad Mitt Land tab

Min stad mitt land by: Gatans Lag.

Intro:
    E                     B                     F#                    A
E|------------------------------------------------------------------------------------------|
B|------------------------------------------------------------------------------------------|
G|--4--4-4--4--4-4--4--4--------------------------------------------------------------------|
D|--2--2-2--2--2-2--2--2--4--4-4--4--4-4--4--4------------------------2--2-2--2--2-2--2--2--|
A|------------------------2--2-2--2--2-2--2--2--4--4-4--4--4-4--4--4--0--0-0--0--0-0--0--0--|
E|----------------------------------------------2--2-2--2--2-2--2--2------------------------|
       . .     . .     .     . .     . .     .     . .     . .     .     . .     . .     .

Lead:
E|--5--4--2--0----5--4--2--0-----2--0--|
B|----------------------------0--------|
G|-------------------------------------|
D|-------------------------------------|
A|-------------------------------------|
E|-------------------------------------|

This riff is used the off the song:
   E             B             F#            A
E|--------------------------------------------------------|
B|--------------------------------------------------------|
G|-4-4-4--4-4-4-------------------------------------------|
D|-2-2-2--2-2-2--4-4-4--4-4-4----------------2-2-2--2-2-2-|
A|---------------2-2-2--2-2-2--4-4-4--4-4-4--0-0-0--0-0-0-|
E|-----------------------------2-2-2--2-2-2---------------|

By:themechanix100
Tap to rate this tab
# A B C D E F G H I J K L M N O P Q R S T U V W X Y Z