Song name
# A B C D E F G H I J K L M N O P Q R S T U V W X Y Z

Gathering - Capital Of Nowhere tab

Help us improve GuitareTab! Take a short survey!
|-----------0-----------|-----------0--------|
|-----------------------|--------------------|
|-----1--2-----2--1--2--|-----1--2-----2--1--|
|-----------------------|--------------------|
|--2--------------------|--2-----------------|
|-----------------------|--------------------| x2

|------2-----2----|-------2-----------|
|-----------------|---------------2---|
|---------2----2--|----------2--------|
|-----------------|-------------------|
|--2--------------|---2---------------| x2
Related for Capital Of Nowhere tab