Song name
# A B C D E F G H I J K L M N O P Q R S T U V W X Y Z

Gathering - In Motion 1 tab

E||---------------------|
B||---------------------|
G||--9------------------|
D||--9------------------|
A||--7------------7\----|
E||--0------------------|

----------------------|
----------------------|
----------------------|
----------------------|
----------------------|
--3--------2----3--2--|

---------------------------|
---------------------------|
---------------------------|
---------------------------|
-------(7)---------(7)\----|
--0-----------0------------|
         
-----------------------|
-----------------------|
-----------------------|
-----------------------|
-----------------------|
--3----2----3--2--0----|
Tap to rate this tab
# A B C D E F G H I J K L M N O P Q R S T U V W X Y Z