Song name
# A B C D E F G H I J K L M N O P Q R S T U V W X Y Z

Gathering - Heartbeat Amplifier tab

 
E||----------------------------------|
B||--------5-------------5-6---5-----|
G||--2---2-----------2-2-------------|
D||----------------------------------|
A||----------------------------------|
E||----------------------------------|
    
----------------------------------|
--------5---------5-5-3-5---3-----|
--2---2-----------------------4---|
----------------------------------|
----------------------------------|
----------------------------------|
Tap to rate this tab
# A B C D E F G H I J K L M N O P Q R S T U V W X Y Z