Song name
# A B C D E F G H I J K L M N O P Q R S T U V W X Y Z

Gathering - In Motion 1 tab

THE GATHERING
IN MOTION #1

Tunning DADGBe

after keyboards intro

Intro \ verse
repeat this many times
e--------------------------------------------------------|
B--------------------------------------------------------|
G--------------------------------------------------------|
D-------2~---------------------------2~------------------|
A--------------------------------------------------------|
D--2--------2/5----4--5-4-5--2---------2/5---4--5-4-5-2--|


CHORUS
e---------------------------------------------------|
B---------------------------------------------------|
G----5-5-5-5-5-5-5-5-5-5----------------------------|
D----5-5-5-5-5-5-5-5-5-5--2-2-2-2-2-2-2-2-2-2-------|
A----3-3-3-3-3-3-3-3-3-3--2-2-2-2-2-2-2-2-2-2-------|
D-------------------------2-2-2-2-2-2-2-2-2-2-------|


e--------------------------------------------------------------|
B--------------------------------------------------------------|
G----5-5-5-5-5-5-5-5-5-5----2-2-2-2-2-2-2-2-2-2-2-2-2-2-2-2----|
D----5-5-5-5-5-5-5-5-5-5----2-2-2-2-2-2-2-2-2-2-2-2-2-2-2-2----|
A----3-3-3-3-3-3-3-3-3-3---------------------------------------|
D--------------------------------------------------------------|


e--------------------------------------|
B--------------------------------------|
G--------------------------------------|
D----5-5-5-5-5-5-5-5-5-5-4-4-4--2---2~-|
A----5-5-5-5-5-5-5-5-5-5-4-4-4--2------|
D----5-5-5-5-5-5-5-5-5-5-4-4-4--2-2----|


Interlude before solo
e----------------------------------------------------------------|
B----------------------------------------------------------------|
G----9-9-9-9-9-9-9-9-9-9-9-9-10-10-10-10-10-10-10-10-10-10-10-10-|
D----9-9-9-9-9-9-9-9-9-9-9-9-10-10-10-10-10-10-10-10-10-10-10-10-|
A----7-7-7-7-7-7-7-7-7-7-7-7--8--8--8--8--8--8--8--8--8--8--8--8-|
D----------------------------------------------------------------|

e--------------------------------------------------------------------|
B--------------------------------------------------------------------|
G--------------------------------------------------------------------|
D-12-12-12-12-12-12-12-12-7-7-7-7-7-7-7-7-7-5-5-5-5-5-5-5-5-5-5-5-5--|
A-12-12-12-12-12-12-12-12-7-7-7-7-7-7-7-7-7-5-5-5-5-5-5-5-5-5-5-5-5--|
D-12-12-12-12-12-12-12-12-7-7-7-7-7-7-7-7-7-5-5-5-5-5-5-5-5-5-5-5-5--|
                                            PM-----------------------|

sOLO
e-------------------------------------------------------------------|
B-5----5-7-8-7------------------------------------------------------|
G--------------5-4-5------------------------------------------------| 3X
D----------------------7b(SLOWLY)-7b--7-5--5--4--5-4-4h5p4----------|
A-------------------------------------------------------------------|
D-------------------------------------------------------------------|
                       RING THE BEND DO A BEND OVER THE BEND


e-------------------------------------------------------------------|
B-5----5-7-8-7------------------------------------------------------|
G--------------5-4-5------------------------------------------------|
D----------------------7b(SLOWLY)-7b--7-5--5--4--5-4-4h5-4-5-2------|
A-------------------------------------------------------------------|
D-------------------------------------------------------------------|


e---------------------------|
B---------------------------|
G---------------------------|
D-2--2-2--0--2---5-5-4--2---|
A---------------------------|
D---------------------------|


Keyboard interlude then Back to chorus


i probably left something but I quite sure it's a little part, something almost not perceptive
the gap's aren't right so listen and play this tab with the music to reach a better sense of time

sorry my bad english
hope you enjoy!
Tap to rate this tab
# A B C D E F G H I J K L M N O P Q R S T U V W X Y Z