Song name
# A B C D E F G H I J K L M N O P Q R S T U V W X Y Z

Gathering - Analog Park tab

THE GATHERING
IF THEN ELSE
Tunning DADGBe

Slight delay /Reverb /Chorus make the music very rich 
Keybords intro


|--------Trying to re-write the keybord part on guitar---------------------|
|                                                                          |
|e------------------------------           e------------------------------ |
|B------------------------------           B------------------------------ |
|G---------2-3-----5------------           G-------2-3-------5~----------- |
|D-----------------------7~~----           D------------------------------ |
|A----5---------5---------------           A--5----------5---------------- |
|D------------------------------           D------------------------------ |
|                                                                          |
|                                                                          |
|   e-----------0----------                                                |
|   B--------------0-------                                                |
|   G----------------------                                                |
|   D---0---4--------------                                                |
|   A--2--2----------------                                                |
|   D----------------------                                                |
|--------------------------------------------------------------------------|

and I think it's crazy
e---------------------------|
B---------------------------|
G---------------------------|
D----------------0----------|
A----------------0----------|
D----------------0----------|


                                                   
e--------------------|                             
B--------------------|                             
G---/14~-16~-17~-----|                             
D--------------------|                              
A--------------------| Repeat this many times      
D--------------------|                            
 
//////////////////////////////////////////////////////
In Live Show René usually do like this              /
e----------|--------|---------                     /
B----------|--------|--------                     /
G-----8/14~|-8/16~--|-8/17~--                    /
D----------|--------|---------  repeat          /
A----------|--------|---------  many times     /
D----------|--------|---------                /
   4times | 2times | 2times                  /
                                            /
the 8 is just a reference to start to slide/
///////////////////////////////////////////

e---------------------|
B---------------------|
G---/14~-16~-17~------|
D-------------------0-|
A-------------------0-|
D-------------------0-|


e--------------------------------------------------------------------------|
B--------------------------------------------------------------------------|
G--------------------------------------------------------------------------|
D--2p0--0-0-0---0-2p0--0-0-0---0-2p0--0-0-0---0-2p0--0-0-0---3-3-3p0-0-0-0-|
A--2p0--0-0-0---0-2p0--0-0-0---0-2p0--0-0-0---0-2p0--0-0-0---3-3-3p0-0-0-0-|
D--2p0--0-0-0---0-2p0--0-0-0---0-2p0--0-0-0---0-2p0--0-0-0---3-3-3p0-0-0-0-|


e-----------------------------------|
B-----------------------------------|
G-----------------------------------| Repeat this many times
D-0-2-2-0-2-2-0-2-2-0-2-2-2\3-3-----|
A-0-2-2-0-2-2-0-2-2-0-2-2-2\3-3-----|
D-0-2-2-0-2-2-0-2-2-0-2-2-2\3-3-----|


e---------------------------------------------------------------------------|
B---------------------------------------------------------------------------|
G---------------------------------------------------------------------------|
D--2p0--0-0-0--0-2p0--0-0-0---0-2p0--0-0-0---0-2p0--0-0-0---0-2p0--0-0-0----|
A--2p0--0-0-0--0-2p0--0-0-0---0-2p0--0-0-0---0-2p0--0-0-0---0-2p0--0-0-0----|
D--2p0--0-0-0--0-2p0--0-0-0---0-2p0--0-0-0---0-2p0--0-0-0---0-2p0--0-0-0----|


e----------------------|
B----------------------|
G---/14~-15~-16~-------|
D----------------------|
A----------------------|
D----------------------|


Last
e----------------------|
B----------------------|
G---/14~-16b-----------|
D----------------------|
A----------------------|
D----------------------|


Listen to get a rhythm
Tap to rate this tab
# A B C D E F G H I J K L M N O P Q R S T U V W X Y Z