Song name
# A B C D E F G H I J K L M N O P Q R S T U V W X Y Z

Gathering - New Moon Different Day tab

Help us improve GuitareTab! Take a short survey!
	"New Moon, Different Day" - The Gathering
		   TAB by Thirdeye


Intro (and played during verses)
E|-----------------------------------------------------
B|-----------------------------------------------------
G|-----------------------------------------------------
D|-----------------------------------------------------
A|------5--5-5-5-7----------5--5-5-5-7-----7-5-3-2-3-2-
E|--0-0------------0----0-0------------0---------------

E|-------------------------------------------
B|-------------------------------------------
G|-------------------------------------------
D|-------------------------------------------
A|------3--8--3-2-0-2-------3--8--3-2-0-2----
E|--1-1-----------------1-1------------------
Related for New Moon Different Day tab