Guitaretab - guitar tabs
Song name
# A B C D E F G H I J K L M N O P Q R S T U V W X Y Z

Gatsbys American Dream - Giants Drink tab

Gatsbys American Dream - The Giant's Drink
Tabbed by: nayr
Email: parisinflames@optonline.net

Tuning: Standard


Chords
    C7   G5   A7
e|------------0------------------------------------| 
B|--3----3----2------------------------------------| 
G|--0----0----0------------------------------------|
D|--x----0----2------------------------------------|
A|--3----x----0------------------------------------| 
E|-------3-----------------------------------------|


Intro
   pm-------------|      pm-------------|
e|---------------------------------------------------| 
B|-------------------------------------------------0-| 
G|-------------------------------------------------0-|
D|------------------7-7------------------7-7--7-7--0-|
A|------------------6-6------------------6-6--6-6--0-| 
E|--0-0-2-3-5-5-3-0-7-7--0-0-2-3-5-5-3-0-7-7--7-7----|

Verse
   pm-------------|
e|----------------------------| 
B|----------------------------| 
G|----------------------------|
D|------------------7-7--7-7--|
A|------------------6-6--6-6--| 
E|--0-0-2-3-5-5-3-0-7-7--7-7--| 4x

Chorus
C7  G5  A7  
[ Tab from: http://www.guitaretab.com/g/gatsbys-american-dream/59299.html ]
Pre-verse: play verse riff 2x and-     
                                          half
e|--7------------------------------7-7-8--7^7-5-| 
B|----8-10-7-8-5-7-5-7~--8-8-10-10--------------| 
G|----------------------------------------------|
D|----------------------------------------------|
A|----------------------------------------------| 
E|----------------------------------------------|
 |                                        full  |
e|----------------------------------------------| 
B|-------------------4~--5-5-7-7-8-8-10-8^8-7-| 
G|----------------------------------------------|
D|----------------------------------------------|
A|----------------------------------------------| 
E|----------------------------------------------|

Verse 4x

Chorus 4x (palm mute A7 on fourth time)

Bridge
e|----------------------| 
B|--12-12-----10-10-----| 
G|--12-12-----11-11-----|
D|--10-104x--10-10-4x--|
A|----------------------| 
E|----------------------|  4x

Bridge lead
    trem picking-----------------|
e|-------------------------------------------------| 
B|--12-13-12-8-10---12-13-12-15-10-----------------| 
G|-------------------------------------------------|
D|--9--10-9--5-7----9--10-9--12-7------------------|
A|-------------------------------------------------| 
E|-------------------------------------------------|

I've got a secret...
    pm-------------|   (gradually release pm over time)
e|---------------------| 
B|---------------------| 
G|---------------------|
D|------------------7--|
A|------------------6--| 
E|--0-0-2-3-5-5-3-0-7--| 4x

Outro chorus: play Chorus riff
Outro lead:
e|-----------------------------------------| 
B|-----------------------------------------| 
G|--5-5-5-5-9-9-9-7-7-7--------------------|
D|----------------------5-5-5-9-9-9--7-----|
A|--3-3-3-3-7-7-7-5-5-5--------------------| 
E|----------------------3-3-3-7-7-7--5x16--|
Related for Giants Drink tab