Guitaretab - guitar tabs
Song name
# A B C D E F G H I J K L M N O P Q R S T U V W X Y Z

Gatsbys American Dream - Theater tab

Gatsbys American Dream - Theater
Tabbed by: nayr
Email: parisinflames@optonline.net

Tuning: Standard

Chords:
    Am  Cmaj  D7  E7 Emaj F5   E5
e|--------------------0----------------------------| 
B|--1-----------------0----------------------------| 
G|--2----0----5---7---1---10---9-------------------|
D|--2----2----4---6---2---10---9-------------------|
A|--0----3----5---7---2---8----7-------------------| 
E|----------------0---0----------------------------|


melancholy...
   pm--------------|
e|-------------------------------| 
B|--1----------------------------| 
G|--2-----0-----5-----10-10-9-9--|
D|--2-----2-----4-----10-10-9-9--|
A|--0-x8--3-x8--5-x7--8--8--7-7--| 
E|-------------------------------|
 |                               |
 |                               |
e|-------------------------------| 
B|-------------------------------| 
G|-------------------------------|
D|----------------------10----6--|
A|--------------------8-----7----| 
E|-------------------------------|

Am               Cmaj    D7              E7
     Some tragedy on the far side of the world  
Am

e|--7h8p7h8p7-----| 
B|-------------10-| 
G|----------------|
D|----------------|
A|----------------| 
E|----------------|
 |                |
e|----------------| 
B|--8h10p8h10p8---| 
G|--------------9-|
D|----------------|
A|----------------| 
E|----------------|

e|--------12----12----12--------| 
B|----13----13----13----13--13--| 
G|--14--14----14----14----14----|
D|------------------------------|
A|------------------------------| 
E|------------------------------|

We're in the deep pockets of my
mind
e|----------------------| 
B|--13-13-13-13-13-13\--| 
G|--14-14-14-14-14-14\--|
D|--14-14-14-14-14-14\--|
A|--12-12-12-12-12-12\--| 
E|----------------------|
[ Tab from: http://www.guitaretab.com/g/gatsbys-american-dream/60174.html ]
Where I lust after blood and
pain
    pm--------|     pm--------|                       Vol. swell
e|---------------------------------------------------------| 
B|---------------------------------------------13-13---13--| 
G|--------------14--------------14----14-14-14----14---14--|
D|--------------14--------------14----------------14---14--|
A|--12-12-12-12-12--12-12-12-12-12----------------12---12--| 
E|---------------------------------------------------------|
        
        pm--|      pm--|      pm--|
e|-----------------------------------------------| 
B|--1-1------------------------------------------| 
G|--2-2-2-2-2--0-0-0-0-0--5-5-5-5-5---10-10-9-9--|
D|--2-2-2-2-2--2-2-2-2-2--4-4-4-4-4---10-10-9-9--|
A|--0-0-0-0-0--3-3-3-3-3--5-5-5-5-5---8--8-7-7--| 
E|-----------------------------------------------|

Am               Cmaj    D7              E7
     Some tragedy on the far side of the world

Bridge: Am   Emaj

Bridge lead
e|---------------------------------------------------| 
B|---------------------------------------------------| 
G|---------------------------------------------------|
D|---------------------------------------------------|
A|--3-2-0-3-2-0-3-2-0-3-2-0---0-2---0-2--------------| 
E|--------------------------4-----4-----4-1-0-4-1-0--|

       Am   Emaj
I am I...

             Emaj(pm)
But can I be saved?
e|---------------------| 
B|---------------------| 
G|--------7------------|
D|------6--------------|
A|---/7----------------| 
E|---------------------|

e|---------------------| 
B|---------------------| 
G|---------------------|
D|---------------------|
A|------3-3p0----------| 
E|--5-5-------3-3-4-4--| x8

Emaj

Am          Cmaj           D7                  F5    E5
   Melancholy      and the wind sings songs as if it would lament
Am          Cmaj           D7             F5    E5
   Some tragedy    on the far side of the world   
Am          Cmaj           D7                  F5    E5
                   and the wind sings songs as if it would lament
Outro fill:
e|----------------------------| 
B|----------------------------| 
G|-----------------------5----|
D|---------------------4---4--|
A|----------2-3--2-3/5--------| 
E|--5-5-3-5-------------------|

Am          Cmaj           D7             Emaj
   Some tragedy    on the far side of the world   

e|---------------------| 
B|---------------------| 
G|------------7--------|
D|------6-7-9---9-7-6--|
A|--7-8----------------| 
E|---------------------|
Related for Theater tab