Song name
# A B C D E F G H I J K L M N O P Q R S T U V W X Y Z

Gavin Clark - Never Seen The Sea tab

The other tab for this song was good but was slightly wrong and hard to play so I 
thought id be able to do it better...

Standard tuning


GUITAR 1:
----------------------------------------------------------------------|
-11--11-11--11-11--11--11-11--11-11---6---6-6---6-6---4---4-4---4-4---|
---11-----11-----11---8------8------8---6-----6-----6---4-----4-----4-|
----------------------------------------------------------------------|
----------------------------------------------------------------------|
----------------------------------------------------------------------|

GUITAR 2:
--------------------------------------------|
--------------------------------------------|
---------------8----------------------------|
-----4-------------8---------8-------4---1--|
--------4--6-------------8-------2----------|
-2--------------------6---------------------|


Play and enjoy :)

Pyzer
Tap to rate this tab
 
# A B C D E F G H I J K L M N O P Q R S T U V W X Y Z