Song name
# A B C D E F G H I J K L M N O P Q R S T U V W X Y Z

Gavin Degraw - We Belong Together tab

Piste 1 acoustic guitar

intro :
     F#m   F#m F#m F#m F#m F#m F#m      B  B  B B B  B B B B
     E   S S   E   S   S   S   S   S    E  E  S S E  S S S E  E
E||--2-----2---2---2---2---2---2---L-|--2--2--2-2-2--2-2-2-2--L--|
B||--2-----2---2---2---2---2---2---L-|--4--4--4-4-4--4-4-4-4--L--|
G||--2-----2---2---2---2---2---2---L-|--4--4--4-4-4--4-4-4-4--L--|
D||--4-----4---4---4---4---4---4---L-|--4--4--4-4-4--4-4-4-4--L--|
A||--4-----4---4---4---4---4---4---L-|--2--2--2-2-2--2-2-2-2--L--|
E||--2---2-2---2---2---2---2---2---L-|---------------------------|

gavin starts to sing wiyh this second intro always on acoustic guitar
       ^                                                    ^
  Q    Q    E  E  E  E     E  E  E  E  E  E  S  S S    Q    Q    E  E  E  E
-------0----------------|---------------------------|-------0----------------|
-------0----------------|---------------------------|-------0----------------|
-------0----------------|--------0------------------|-------0----------------|
-------2----2--5--4--2--|-----2-----------0-------0-|-------2----2--5--4--2--|
-------2----------------|--3-----------2-----0h-2---|-------2----------------|
--0---------------------|-----------3---------------|--0---------------------|

We belong together       like the open seas and shores  wedded by the planet force
                                    ^
  E  E  E  Q    S S S S S S    Q    Q    E  E  E  E     E  E  E  E  E  E  Q
-----------0----------------|-------0----------------|-------------------------| here 
the distorsion guitar
-----------3----------------|-------0----------------|-------------------------| play 
same intro
--------0--2----------------|-------0----------------|--------0----------------|
-----2----------4h5p4h5-L-L-|-------2----2--5--4--2--|-----2-----------0-------|
--3-------------------------|-------2----------------|--3-----------2----------|
----------------------------|--0---------------------|-----------3--------0----|
we`ve all been spoken for.

  ^     v v ^     ^  ^
  E  E  S S E  E  E  E  S    E  E  S E  E  E  S S S    E  E  S E  E  E  S S S
--------------------------|-------------------------|-------------------------|
--------------------------|-------------------------|-------------------------|
--------------------------|--0--L--0-0--0--L--0-0-L-|--0--L--0-0--0--L--0-0-L-|
--2--L--2-2-2--L--2--2--L-|--0--L--0-0--0--L--0-0-L-|--0--L--0-0--0--L--0-0-L-|
-----L--2-2-3--L--3--3--L-|--2--L--2-2--2--L--2-2-L-|--2--L--2-2--2--L--2-2-L-|
--------0-0-0-----0--0--L-|--3--L--3-3--3-----3-3-L-|--3--L--3-3--3-----3-3-L-|

                           you can if you want to not play this part
  E  E  S E  S E  S S S
------------------------|-----|-----|-----|-----|-----|-----|-----|-----|-----|
------------------------|-----|-----|-----|-----|-----|-----|-----|-----|-----|
--0--L--0-0--0-L--0-0-L-|-----|-----|-----|-----|-----|-----|-----|-----|-----|
--0--L--0-0--0-L--0-0-L-|-----|-----|-----|-----|-----|-----|-----|-----|-----|
--2--L--2-2--2-L--2-2-L-|-----|-----|-----|-----|-----|-----|-----|-----|-----|
--3--L--3-3--3----3-3-L-|-----|-----|-----|-----|-----|-----|-----|-----|-----|

VERSE alaway on acoustic guitar play it in this way its sound good : down up block down block
 al the verse

        G     G    G              G     G    G
        E  E  S E  E  E  E  E     E  E  S E  E  E  E  E
-----|--3--L--3-x--3--L--x-----|--3--L--3-x--3--L--x-----|
-----|--3--L--3-x--3--L--x-----|--3--L--3-x--3--L--x-----|
-----|--0--L--0-x--0--L--x-----|--0--L--0-x--0--L--x-----|
-----|--0--L--0-x--0--L--x--L--|--0--L--0-x--0--L--x--L--|
-----|--2--L--2-x--2--L--x-----|--2--L--2-x--2--L--x-----|
-----|--3--L--3-x--3-----x-----|--3--L--3-x--3-----x-----|
The hammer may strike,

  Em    Em    Em             Em    Em    Em
  E  E  S  E  E  E  E  E     E  E  S  E  E  E  E  E
--0--L--0--x--0--L--x--L--|--0--L--0--x--0--L--x--L--|
--0--L--0--x--0--L--x--L--|--0--L--0--x--0--L--x--L--|
--0--L--0--x--0--L--x--L--|--0--L--0--x--0--L--x--L--|
--2-----2--x--2--L--x--L--|--2-----2--x--2--L--x--L--|
--2--L--2--x--2--L--x--L--|--2--L--2--x--2--L--x--L--|
--0--L--0--x--0--L--x--L--|--0--L--0--x--0--L--x--L--|

Me dead on the ground,

  C     C
  E  E  S  E  E  E  E  E     E  E  S  E  E  E  E  E
--0--L--0--x--0--L--x--L--|--0--L--0--x--0--L--x--L--|
--1--L--1--x--1--L--x--L--|--1--L--1--x--1--L--x--L--|
--0--L--0--x--0--L--x--L--|--0--L--0--x--0--L--x--L--|
--2-----2--x--2--L--x--L--|--2-----2--x--2--L--x--L--|
--3--L--3--x--3--L--x--L--|--3--L--3--x--3--L--x--L--|
--0--L--0--x--0--L--x--L--|--0--L--0--x--0--L--x--L--|

A net to my hand,
  Dsus2                                                G     G    G
  E  E  S  E  E  E  E  E     E  E  S  E  E  E  E  E     E  E  S E  E  E  E  E
--0--L--0--x--0--L--x--L--|--3--L--3--x--3--L--x--L--|--3--L--3-x--3--L--x-----|
--2--L--2--x--2--L--x--L--|--2--L--2--x--2--L--x--L--|--3--L--3-x--3--L--x-----|
--3--L--3--x--3--L--x--L--|--3--L--3--x--3--L--x--L--|--0--L--0-x--0--L--x-----|
--0-----0--x--0--L--x--L--|--0-----0--x--0--L--x--L--|--0--L--0-x--0--L--x--L--|
--0--L--0--x--0--L--x--L--|--0--L--0--x--0--L--x--L--|--2--L--2-x--2--L--x-----|
--0--L--0--x--0--L--x--L--|--0--L--0--x--0--L--x--L--|--3--L--3-x--3-----x-----|

A cross on his crown.        than continue the same way during all the verse
  G     G    G              Em    Em    Em             Em    Em    Em
  E  E  S E  E  E  E  E     E  E  S  E  E  E  E  E     E  E  S  E  E  E  E  E
--3--L--3-x--3--L--x-----|--0--L--0--x--0--L--x--L--|--0--L--0--x--0--L--x--L--|
--3--L--3-x--3--L--x-----|--0--L--0--x--0--L--x--L--|--0--L--0--x--0--L--x--L--|
--0--L--0-x--0--L--x-----|--0--L--0--x--0--L--x--L--|--0--L--0--x--0--L--x--L--|
--0--L--0-x--0--L--x--L--|--2-----2--x--2--L--x--L--|--2-----2--x--2--L--x--L--|
--2--L--2-x--2--L--x-----|--2--L--2--x--2--L--x--L--|--2--L--2--x--2--L--x--L--|
--3--L--3-x--3-----x-----|--0--L--0--x--0--L--x--L--|--0--L--0--x--0--L--x--L--|


  C     Em    Em             Em    Em    Em
  E  E  S  E  E  E  E  E     E  E  S  E  E  E  E  E
--0--L--0--x--0--L--x--L--|--0--L--0--x--0--L--x--L--|
--1--L--1--x--1--L--x--L--|--1--L--1--x--1--L--x--L--|
--0--L--0--x--0--L--x--L--|--0--L--0--x--0--L--x--L--|
--2-----2--x--2--L--x--L--|--2-----2--x--2--L--x--L--|
--3--L--3--x--3--L--x--L--|--3--L--3--x--3--L--x--L--|
--0--L--0--x--0--L--x--L--|--0--L--0--x--0--L--x--L--|


  Em    Em    Em             Em    Em    Em
  E  E  S  E  E  E  E  E     E  E  S  E  E  E  E  E
--0--L--0--x--0--L--x--L--|--3--L--3--x--3--L--x--L--|
--2--L--2--x--2--L--x--L--|--2--L--2--x--2--L--x--L--|
--3--L--3--x--3--L--x--L--|--3--L--3--x--3--L--x--L--|
--0-----0--x--0--L--x--L--|--0-----0--x--0--L--x--L--|
--0--L--0--x--0--L--x--L--|--0--L--0--x--0--L--x--L--|
--0--L--0--x--0--L--x--L--|--0--L--0--x--0--L--x--L--|


in the chorus play the intro
outro arpegio :

Piste 1
     E  E  E  E  E  E  E  E     E  E  E  E  E  E  E  E
E||--------------0-----------|--------------------------|
B||-----------0-----0--------|--------------------------|
G||--------0-----------0-----|--------0--L--------0-----|
D||-----2-----------------2--|-----2-----------0--------|
A||--------------------------|--3-----------------------|
E||--0-----------------------|--------------3--------2--|


  E  E  E  E  E  E  E  E     E  E  E  E  E  E  E  S S
-----------------0--------|-----------------------2h3p2|
--------------0-----0-----|--------------------2-------|
-----------0-----------0--|-----------0-----3----------|
--0-----2-----------------|--2-----2-----0-------------|
--------------------------|-----3----------------------|
-----0--------------------|----------------------------|


  S E  E  E  E  E  E  E     E  E  E  E  E  E  E  E     E  E  E  E  E  E  E  E
--2----------------------|--------------------------|--------------------------|
-------------0--0--------|--------------------------|-----------0-----------1--|
----------0--------0-----|--------0--------0--------|--------0-----------0-----|
-------2--------------2--|-----2--------0--------0--|-----2-----------2--------|
-------------------------|--3-----------------------|--------------3-----------|
----0--------------------|-----------3--------2-----|--0-----------------------|


  E  E  E  E  E  E  E  E     E  E  E  E  E  E  E  E
--------------3-----------|--------------------------|
-----------3-----3--------|-----------0-----------1--|
--------0-----------0-----|--------0-----------0-----|
-----0-----------------0--|-----2-----------2--------|
--------------------------|--------------3-----------|
--3-----------------------|--0-----------------------|


                                                        G
                                                        ^
  E  E  E  E  E  E  E  E     E  E  E  E  E  E  E  E     Q
--------------3-----------|--------------------------|--3----||
-----------3-----3--------|-----------0-----------1--|--0----||
--------0-----------0-----|--------0-----------0-----|--0----||
-----0-----------------0--|-----2-----------2--------|--0----||
--------------------------|--0-----------3-----------|--2----||
--3-----------------------|--------------------------|--3----||

intro
We belong together,

like the open seas and shores.

wedded by the planet force,

we`ve all been spoken for.

verse
G Em C D

The hammer may strike,

Me dead on the ground,

A net to my hand,

A cross on his crown.

We're done if, who we're undone,

Finished if who we are incomplete.

As one we are everything,

We are everything we need.

chorus intro

We belong together,

like the open seas and shores.

wedded by the planet force,

we`ve all been spoken for.

VERSE 2
What good is a life,

With no one to share,

The light of the moon,

The honor of a swear?

Will you try to live the way of which you speak?

Taste the milk of your mother earth's love?


Spread the word of consciousness you see?

We are everything we need.

CHORUS

We belong together,

like the open seas and shores.

wedded by the planet force,

we`ve all been spoken for.

same as chorus

All this indecision.

All this independent strain.

Still we've got our hearts on save,

We've got our hearts on save.

end arpegio

Someday when you're lonely,

Sometime after all this bliss,

Somewhere lost in emptiness,

I hope you find this gift.

I hope you find this gift.

I hope you find this gift.


if you like this tab pleaz send me an acoustic guitar if you have one wish you are not playing
 with. i have no money to buy one my email is hoobasam@hotmail.com for any corecction or question
i ma here dont forget this is my first wait soon i ll finish it on guitar pro and i will inchala
make what goes around comes aroun by justin guitar tab it ready wait for send me email


Duration Legend
---------------
W - whole
H - half
Q - quarter
E - 8th
S - 16th
T - 32nd
X - 64th
. - note dotted
|-n-|  - n-tuplets


Tablature Legend
----------------
L - tied note
x - dead note
g - grace note
(n) - ghost note
> - accentuded note
NH - natural harmonic
AH - artificial harmonic
TH - tapped harmonic
SH - semi harmonic
PH - pitch harmonic
h - hammer on
p - pull off
b - bend
br - bendRelease
pb - preBend
pbr - preBendRelease
brb - bendReleaseBend
\n/ - tremolo bar dip
\n - tremolo bar dive
-/n - tremolo bar Release up
/n\ - tremolo bar inverted dip
/n - tremolo bar return
-\n - tremolo bar Release down
S - shift slide
s - legato slide
/ -  slide into from below or out of upwards
\ -  slide into from above or out of downwards
~ - vibrato
W - wide vibrato
tr - trill
TP - tremolo picking
T - tapping
S - slap
P - pop
< - fade in
^ - brush up
v - brush down
Tap to rate this tab
# A B C D E F G H I J K L M N O P Q R S T U V W X Y Z